» » »

6 To 8 Tabs (ver.2)

Artists:  A B C D E F G H I J K L M N O P Q R S T U V W X Y Z # 

6 To 8 Tabs (ver.2)

Afi
Rating:
3/5 (18 votes)

Tabs too difficult? Try these video lessons and learn fast.
                -------------------------------------------------------------------------------
-------------------------------------------------------------------------------

Tuning:standard (EADGBe)

Intro:
e|------------------------------------------------------------------------|
B|------------------------------------------------------------------------|
G|------------------------------------------------------------------------|
D|--9--990---5--550---7--7---7-7-7-7----9--990---5--550---7--7---7-7-7-7--|
A|--0--000---0--000---0--0--0-0-0-0-----0--000---0--000---0--0--0-0-0-0---|
E|------------------------------------------------------------------------|

intro/bridge:
e|---------------------------------------------------------------|
B|---------------------------------------------------------------|
G|------2---2h4---2------2---2h4---2---0---2--222--2--22-2-------|
D|----2---------2------2---------2---------0--000--0--00-0-------|
A|--0-----0----------3-----3----------0--------------------------|
E|---------------------------------------------------------------|

intro- part 2:
e|---------------------------------------|
B|---------------------------------------|
G|---------------------------------------|
D|--9--990---5--550---7--7---7-7-7-7-----|
A|--0--000---0--000---0--0--0-0-0-0------|
E|---------------------------------------|

verse:
e|-----------------------------------------------------|
B|-10-101010-0---5--5-5-5-0--8--8-8-888--7--7-7-777----|
G|--9--9-9-9-0---5--5-5-5-0--7--7-7-777--7--7-7-777-x4-|
D|--9--9-9-9-0---5--5-5-5-0--7--7-7-777--7--7-7-777----|
A|-----------------------------------------------------|
E|-----------------------------------------------------|
 
chorus:
e|-----------------------------------------------|
B|-----------------------------------------------|
G|--55555555---------------------7-9-7-9--2--4---|
D|--55555555--5-55-5-555---2-0---x-x-x-x--2--4---|
A|--33333333--5-55-5-555---2-0---5/7\5/7--0--2---|
E|------------3-33-3-333---0-0-------------------|

e|-----------------------------------------------|
B|-----------------------------------------------|
G|--55555555--------------------7-9-7-9-12-12-11-|
D|--55555555--5-55-5-555--2-0---x-x-x-x--x--x--x-|
A|--33333333--5-55-5-555--2-0---5/7\5/7/10-10--9-|
E|------------3-33-3-333--0-0--------------------|

verse x1
chorus x2
bridge x2
chorus x1

solo/ending
e|-------------------------------------------------|
B|--12^-------12--12-12-12-12--------------12------|
G|--14^--12h14--1212-12-12-12--7-9-99-12-9----9----|
D|-------------------------------------------------|
A|-------------------------------------------------|
E|-------------------------------------------------|

e|-----------------------------------------------0-14-15-17-15-14-15-14---|
B|--------------------12-------12-12-12-17171717-0-12-12-12-12-12-12-12---|
G|--12-12-12/14-1414----12~14---------------------------------------------|
D|------------------------------------------------------------------------|
A|------------------------------------------------------------------------|
E|------------------------------------------------------------------------|

e|-----------15------15-------15---------14~15~12~~~---|
B|--15h17-17----17------17-------17------12~12~12~~~---|
G|-----------------16------16-------16-----------------|
D|-----------------------------------------------------|
A|-----------------------------------------------------|
E|-----------------------------------------------------|


| /  slide up
| \  slide down
| h  hammer-on
| p  pull-off
| ~  vibrato
| +  harmonic
| x  Mute note
===============================================================================
            
Tabs too difficult? Try these video lessons and learn fast.




comments powered by Disqus
↑ Back to top | Tablatures and chords are parodies/interpretations of the original songs. You may use it for private study, scholarship, research or language learning purposes only