» » »

6 To Bass tabs (ver.1)

Artists:  A B C D E F G H I J K L M N O P Q R S T U V W X Y Z # 

6 To Bass tabs (ver.1)

Afi
Rating:
0/5 (0 votes)

Hard to play? Try these video lessons and learn fast.
                |-------- x2 |---------- x2 |------ 
|-6h7----    |-------0r-    |-6h7-- 
|----0---    |-0r-3r----    |----0- 
|--------    |----------    |------ 

verse 
|------------------------------------------ 
|-------------2p0-------------------------- 
|-0-0-1-2-3-3-----3p0-----3-4-5-5--0-3----- 
|---------------------3-3------------------ 

|---------------------------------2-0---0-- 
|-------------2p0---------------------3---- 
|-0-0-1-2-3-3-----3p0-----3-4-5-5---------- 
|---------------------3-3------------------ 

|------------------------------------------ 
|-------------2p0-------------------------- 
|-0-0-1-2-3-3-----3p0-----3-4-5-5--0-3----- 
|---------------------3-3------------------ 

|------------------------------------------ 
|-------------2p0-------------------------- 
|-0-0-1-2-3-3-----3p0-----3-4-55555555----- 
|---------------------3-3------------------ 

chorus 
|--------------------------------------------------- x4 
|----------------------------0h2-0h2-------0h2-0h2-- 
|-3-3-3-3------------------------------------------- 
|---------3-3-3-3-3-1-0-0-0-0--------0-0-0---------- 

verse 

chorus 

breakdown 
|---------- x4 
|-------0r- 
|-0r-3r---- 
|---------- 

chorus 2 
|--------------------------------------------------- x3 
|----------------------------0h2-0h2-------0h2-0h2-- 
|-3-3-3-3------------------------------------------- 
|---------3-3-3-3-3-1-0-0-0-0--------0-0-0---------- 

|-------- 
|-------- 
|-3-3-3-3 
|-------- 

solo 
|--------------------------------------------------------- 
|--------------------------------------------------------- 
|-----------------------0-3-3-3-3-3-3-3-3----------------- 
|-0-0-0-0-0-0-0-0-0-0-0-------------------3-3-3-3-3-3-3-3- 

|--------------------------------- x3 
|---------0h2-0h2--------0h2-0h2-- 
|--------------------------------- 
|-0-0-0-0---------0-0-0----------- 

outro 
|---------- 
|---------- 
|-3r------- 
|----3r-0r-

this is very easy and very fun to play.
afi kicks ass
            
Hard to play? Try these video lessons and learn fast. | Correct




comments powered by Disqus
↑ Back to top | Tablatures and chords are parodies/interpretations of the original songs. You may use it for private study, scholarship, research or language learning purposes only