» » »

6 To Tabs (ver.1)

Artists:  A B C D E F G H I J K L M N O P Q R S T U V W X Y Z # 

6 To Tabs (ver.1)

Afi
Rating:
0/5 (0 votes)

Hard to play? Try these video lessons and learn fast.
                e|--------------------------------------------------------------------------|
B|--------------------------------------------------------------------------|
G|--------------------------------------------------------------------------|
D|-----0-0----0-0-----0-0-0-0-0-0-------------------------------------------|
A|-----9-9----7-7-----5-5-5-5-5-5---repeat a few times----------------------|
E|--------------------------------------------------------------------------|

e|--------------------------------------------------------------------------|
B|--------------------------------------------------------------------------|
G|------22--4-22------------22--4-22--------2-2-2-2-------------------------|
D|------------------------------------------0-0-0-0- repeat a few times-----|
A|---0---------------3------------------------------------------------------|
E|--------------------------------------------------------------------------|

e|--------------------------------------------------------------------------|
B|--------------------------------------------------------------------------|
G|--------------------------------------------------------------------------|
D|--------5-5------7-7------------------------------------------------------|
A|---7-7--3-3-5-5--5-5-------about 4 times----------------------------------|
E|---5-5------3-3-----------------------------------------------------------|

e|--------------------------------------------------------------------------|
B|--------------------------------------------------------------------------|
G|--------------------------------------------------------------------------|
D|--5-5-5-5-----------------------------------------------------------------|
A|--3-3-3-3---5-5-----2<-<-<-10 times---------------------------------------|
E|------------3-3-----0-----------------------------------------------------|
 

This is the tab thanx
            
Hard to play? Try these video lessons and learn fast. | Correct




comments powered by Disqus
↑ Back to top | Tablatures and chords are parodies/interpretations of the original songs. You may use it for private study, scholarship, research or language learning purposes only