» » »

Afi, 37mm Bass tabs (ver.1)

Artists:  A B C D E F G H I J K L M N O P Q R S T U V W X Y Z # 

37mm Bass tabs (ver.1)

Afi Tabs
 Rating:
4/5 (5 votes)
37mm lessons Tabs too difficult? Try these video lessons and learn fast
                I've got a 5 string nd i fink its easier 2 use the 5th string
Tuning = Bb,Eb,Ab,Db,Gb

Intro/verse
Gb]--------------------------------------------------------------------|
Db]--------------------------------------------------------------------|
Ab]--------------------------------------------------------------------|
Eb]-5-5-5-555-5-5-5-5-5-5-555-5-5-5-8-8-8-888-8-8-8-8-8-8-888-8-8-10---|
Bb]--------------------------------------------------------------------|

Gb]--------------------------------------------------------------------|
Db]--------------------------------------------------------------------|
Ab]--------------------------------------------------------------------|
Eb]-5-5-5-555-5-5-5-5-5-5-555-5-5-5------------------------------8-10--|
Bb]---------------------------------8-8-8-888-8-8-8-8-8-8-888-10-------| x2

Bridge
Gb]------------------------------------------------------------------|
Db]------------------------------------------------------------------|
Ab]------------------------------------------------------------------|
Eb]-5-5-5-555-5-5-5-5-5-5-555-5-5-5-8-8-8-888-8-8-8-8-8-8-888-8-8-8--|
Bb]------------------------------------------------------------------|

Gb]------------------------------------------------------------------|
Db]------------------------------------------------------------------|
Ab]------------------------------------------------------------------|
Eb]------------------------------------------------------------------|
Bb]-8-8-8-888-8-8-8-8-8-8-888-8-8-8-8-8-8-888-8-8-8-8-8-8-888-8-8-8--|

Chorus
Gb]-------------------------------------------------------------------------|
Db]-------------------------------------------------------------------------|
Ab]-------------------------------------------------------------------------|
Eb]-10-10-10-10-10-10-10-10-8-8-8-8-8-8-8-8---------------------------------|
Bb]-----------------------------------------6-6-6-6-6-6-6-6-6-6-6-6-6-6-6-6-|

Gb]-------------------------------------------------------------------------|
Db]-------------------------------------------------------------------------|
Ab]-------------------------------------------------------------------------|
Eb]-10-10-10-10-10-10-10-10-8-8-8-8-8-8-8-8---------------------------------|
Bb]-----------------------------------------8-8-8-8-8-8-8-8-8-8-8-8-8-8-8-8-|

Verse x1
Bridge x1
Chorus x1

Interlude
Gb]-10-9---------------------------------9---9----------------------|
Db]------10---------------10---10-12-7-----7---7----10------12------|
Ab]---------10-----------------------------------88----8/10-----10--|
Eb]------------8---8-10------10-------------------------------------|
Bb]--------------8--------------------------------------------------| x4

Gb]------------------------------------------------------------------|
Db]------------------------------------------------------------------|
Ab]------------------------------------------------------------------|
Eb]------------------------------------------------------------------|
Bb]-6-6-6-6(x4)-10-10-10-10(x4)-3-3-3-3(x4)-5-5-5-5(x4)--------------|

Chorus effect
Chorus x2
Outro=intro bt wiv effect

This is my 1st tabs so may not b perfect but it sounds rite 2 me.
            
Submit corrections

comments powered by Disqus
↑ Back to top | Afi Bass for 37mm. Lyrics for acoustic guitar and electric guitar. Tablatures and chords are parodies/interpretations of the original songs. You may use it for private study, scholarship, research or language learning purposes only