>
 >
 >
100 Words

100 Words Guitar Tabs

Afi - 100 Words chords, tabs, tablatures, lyrics

Guitar lessons | Add/correct | Request | Top 50 tabs Artists:  A B C D E F G H I J K L M N O P Q R S T U V W X Y Z 0-9

100 Words Guitar Tabs – Afi

CD, Sheet music, Poster

Do you like 100 Words? Share with your friends now
Tabs
Song - 100 Words
Artist - AFI
Album - Sing The Sorrow
(Released as a Crash Love B-Side)


Don't forget to rate and comment this tab, thank you.

If you utilise this tab, please give credit where credit is due. Thank you very much.


This is the complete tab for a previously unreleased song called '100 Words'
I hope you enjoy it. I believe this tab to be 100% accurate. It is the first tab of '100 Words'
out there. All music and copyright belongs to AFI, DreamWorks and Interscope Records. 
No infringement is intended.


138BPM	4/4 timing

Tuning: Eb, Ab, Db, Gb, Bb, eb
(Half a step down from Standard E)


Intro (Clean) 00:00 - 00:14

|--------------------------------|--------------------------------|
|--------------------------------|--------------------------------|
|--------------------------------|--------------------------------|
|--------4--------4--------------|--------------7-----------------|
|-----------5--------5-----------|--------4----------4------------|
|-----7--------7--------7-7------|-----5-----5----------5--0------|

|--------------------------------|--------------------------------|
|--------------------------------|--------------------------------|
|--------------------------------|-----------0--------------------|
|--------4--------4--------------|--------4-----------------------|
|-----------5--------5-----------|-----5--------------------------|
|-----3--------3--------3--------|--------------5-----5-----------|

|--------------------------------|--------------------------------|
|--------------------------------|--------------------------------|
|--------------------------------|--------------------------------|
|--------4--------4--------------|-----------0--------0-----------|
|-----------5--------5-----------|--------5--------5--------------|
|-----7--------7--------7--0-----|-----2--------2--------2--------|

|--------------------------------|--------------------------------|
|--------------------------------|--------------------------------|
|--------------------------------|--------------------------------|
|-----------0--------0-----------|--------0-----------------------|
|--------5--------5--------------|-----------4--------------------|
|-----3--------3--------3--0-----|-----5--------------------------|


Verse (Clean) 00:15 - 00:42

|--------------------------------|--------------------------------|
|--------------------------------|--------------------------------|
|--------------------------------|--------------------------------|
|--------4--------4--------------|--------------7-----------------|
|-----------5--------5-----------|--------4----------4------------|
|-----7--------7--------7-7------|-----5-----5----------5--0------|

                  "This is the final night, boys"

|--------------------------------|--------------------------------|
|--------------------------------|--------------------------------|
|--------------------------------|-----------0--------------------|
|--------4--------4--------------|--------4-----------------------|
|-----------5--------5-----------|-----5--------------------------|
|-----3--------3--------3--------|--------------5-----5-----------|


|--------------------------------|--------------------------------|
|--------------------------------|--------------------------------|
|--------------------------------|--------------------------------|
|--------4--------4--------------|-----------0--------0-----------|
|-----------5--------5-----------|--------5--------5--------------|
|-----7--------7--------7--0-----|-----2--------2--------2--------|

                  "We are the cracks in diamond"

|--------------------------------|--------------------------------|
|--------------------------------|--------------------------------|
|--------------------------------|--------------------------------|
|-----------0--------0-----------|--------0-----------------------|
|--------5--------5--------------|-----------4--------------------|
|-----3--------3--------3--0-----|-----5--------------------------|

     "walls."

|--------------------------------|--------------------------------|
|--------------------------------|--------------------------------|
|--------------------------------|--------------------------------|
|--------4--------4--------------|--------------7-----------------|
|-----------5--------5-----------|--------4----------4------------|
|-----7--------7--------7-7------|-----5-----5----------5--0------|

              "I tried to illuminate but the"

|--------------------------------|--------------------------------|
|--------------------------------|--------------------------------|
|--------------------------------|-----------0--------------------|
|--------4--------4--------------|--------4-----------------------|
|-----------5--------5-----------|-----5--------------------------|
|-----3--------3--------3--------|--------------5-----5-----------|

     "shadows kill. I'm overshadowed."

|--------------------------------|--------------------------------|
|--------------------------------|--------------------------------|
|--------------------------------|--------------------------------|
|--------4--------4--------------|-----------0--------0-----------|
|-----------5--------5-----------|--------5--------5--------------|
|-----7--------7--------7--0-----|-----2--------2--------2--------|

                  "See how I blend in with"

(Heavy Distortion until verse)
|--------------------------------|--------------------------------|
|-----------------5--5--5--5-----|-----5--5--5--5--5--5--5--5-----|
|-----4--4--4--4--7--7--7--7-----|-----6--6--6--6--6--6--6--6-----|
|-----5--5--5--5--7--7--7--7-----|-----7--7--7--7--7--7--7--7-----|
|-----5--5--5--5--5--5--5--5-----|-----7--7--7--7--7--7--7--7-----|
|-----3--3--3--3--5--5--5--5-----|-----5--5--5--5--5--5--5--5-----|

     "nothing?"


00:43 - 00:45

Guitar I
|--------------------------------|--------------------------------|
|--------------------------------|--------------------------------|
|-----7-----7--------------------|---7----7--7--7--6--6--6--6-----|
|-----9-----9-----x--x--x--------|---9----9--9--9--7--7--7--7-----|
|-----9-----9-----x--x--x--------|---9----9--9--9--7--7--7--7-----|
|-----7-----7-----x--x--x--------|---7----7--7--7--5--5--5--5-----|

Guitar II (Overdub)
|--------------------------------|--------------------------------|
|--------------------------------|--------------------------------|
|--------------------------------|--------------------------------|
|--------------------------------|--------------------------------|
|--------------------------------|--------------------------------|
|-----------------7/1------------|--------------------------------|


00:46 - 00:49

Guitar I
|--------------------------------|--------------------------------|
|--------------------------------|--------------------------------|
|-----7-----7--------------------|----7---7--7--7--6--6--6--6-----|
|-----7-----7-----x--x--x--------|----7---7--7--7--7--7--7--7-----|
|-----5-----5-----x--x--x--------|----5---5--5--5--7--7--7--7-----|
|-----5-----5-----x--x--x--------|----5---5--5--5--5--5--5--5-----|

Guitar II (Overdub)
|--------------------------------|-----15-------------------------|
|--------------------------------|-----17b19----------------------|
|--------------------------------|--------------------------------|
|-----------------7/1------------|--------------------------------|
|--------------------------------|--------------------------------|
|--------------------------------|--------------------------------|


00:50 - 00:52

Guitar I
|--------------------------------|--------------------------------|
|--------------------------------|--------------------------------|
|-----7-----7--------------------|----7---7--7--7--6--6--6--6-----|
|-----9-----9-----x--x--x--------|----9---9--9--9--7--7--7--7-----|
|-----9-----9-----x--x--x--------|----9---9--9--9--7--7--7--7-----|
|-----7-----7-----x--x--x--------|----7---7--7--7--5--5--5--5-----|

Guitar II (Overdub)
|--------------------------------|--------------------------------|
|--------------------------------|--------------------------------|
|--------------------------------|--------------------------------|
|--------------------------------|--------------------------------|
|--------------------------------|--------------------------------|
|-----------------7/1------------|--------------------------------|


00:53 - 00:55

|--------------------------------|--------------------------------|
|--------------------------------|--------------------------------|
|-----4--------------------------|-----6--------------------------|
|-----5--------------------------|-----7--------------------------|
|-----5--------------------------|-----7--------------------------|
|-----3--------------------------|-----5--------------------------|
      (Let ring)                       (Let ring)


Verse II (Clean) 00:56 - 01:26

|--------------------------------|--------------------------------|
|--------------------------------|--------------------------------|
|--------------------------------|--------------------------------|
|--------4--------4--------------|--------------7-----------------|
|-----------5--------5-----------|--------4----------4------------|
|-----7--------7--------7-7------|-----5-----5----------5--0------|

              "Now beautiful boys, lets destroy."

|--------------------------------|--------------------------------|
|--------------------------------|--------------------------------|
|--------------------------------|-----------0--------------------|
|--------4--------4--------------|--------4-----------------------|
|-----------5--------5-----------|-----5--------------------------|
|-----3--------3--------3--------|--------------5-----5-----------|


|--------------------------------|--------------------------------|
|--------------------------------|--------------------------------|
|--------------------------------|--------------------------------|
|--------4--------4--------------|-----------0--------0-----------|
|-----------5--------5-----------|--------5--------5--------------|
|-----7--------7--------7--0-----|-----2--------2--------2--------|

              "We'll shine as the lucite breaks and"

|--------------------------------|--------------------------------|
|--------------------------------|--------------------------------|
|--------------------------------|--------------------------------|
|-----------0--------0-----------|--------0-----------------------|
|--------5--------5--------------|-----------4--------------------|
|-----3--------3--------3--0-----|-----5--------------------------|

     "falls."

|--------------------------------|--------------------------------|
|--------------------------------|--------------------------------|
|--------------------------------|--------------------------------|
|--------4--------4--------------|--------------7-----------------|
|-----------5--------5-----------|--------4----------4------------|
|-----7--------7--------7-7------|-----5-----5----------5--0------|

                  "Raise the new glitter god with the"

|--------------------------------|--------------------------------|
|--------------------------------|--------------------------------|
|--------------------------------|-----------0--------------------|
|--------4--------4--------------|--------4-----------------------|
|-----------5--------5-----------|-----5--------------------------|
|-----3--------3--------3--------|--------------5-----5-----------|

     "golden tears. The tears that swallow."

|--------------------------------|--------------------------------|
|--------------------------------|--------------------------------|
|--------------------------------|--------------------------------|
|--------4--------4--------------|-----------0--------0-----------|
|-----------5--------5-----------|--------5--------5--------------|
|-----7--------7--------7--0-----|-----2--------2--------2--------|

              "A smile thats touched so warms"

(Heavy Distortion through Chorus until Verse III)
|--------------------------------|--------------------------------|
|--------------------------------|--------------------------------|
|-----4--------------------------|-----4--------4--------4--------|
|-----5--------------------------|-----5--------5--------5--------|
|-----5--------------------------|-----5--------5--------5--------|
|-----3--------------------------|-----3--------3--------3--------|

     "nothing."

|--------------------------------|--------------------------------|
|--------------------------------|--------------------------------|
|-----6-----------------6--------|-----14-14-14-14-14-------------|
|-----7-----------------7--------|-----14-14-14-14-14-------------|
|-----7-----------------7--------|-----12-12-12-12-12-------------|
|-----5-----------------5--------|-----12-12-12-12-12-------------|


Chorus (Heavy Distortion) 01:27 - 02:00

|-----5--5--5--5--5--5--5--5-----|-----7--7--7--7--7--7--7--7-----|
|-----5--5--5--5--5--5--5--5-----|-----7--7--7--7--7--7--7--7-----|
|-----7--7--7--7--7--7--7--7-----|-----7--7--7--7--7--7--7--7-----|
|-----7--7--7--7--7--7--7--7-----|-----9--9--9--9--9--9--9--9-----|
|-----5--5--5--5--5--5--5--5-----|-----9--9--9--9--9--9--9--9-----|
|-----5--5--5--5--5--5--5--5-----|-----7--7--7--7--7--7--7--7-----|

     "Yesterday I"                      "burnt the sky,"

|-----5--5--5--5--5--5--5--5-----|-----5--5--5--5--5--5--5--5-----|
|-----5--5--5--5--5--5--5--5-----|-----5--5--5--5--5--5--5--5-----|
|-----6--6--6--6--6--6--6--6-----|-----6--6--6--6--6--6--6--6-----|
|-----7--7--7--7--7--7--7--7-----|-----7--7--7--7--7--7--7--7-----|
|-----7--7--7--7--7--7--7--7-----|-----7--7--7--7--7--7--7--7-----|
|-----5--5--5--5--5--5--5--5-----|-----5--5--5--5--5--5--5--5-----|

     "looked to the ground and wrapped it around me."

|-----5--5--5--5--5--5--5--5-----|-----7--7--7--7--7--7--7--7-----|
|-----5--5--5--5--5--5--5--5-----|-----7--7--7--7--7--7--7--7-----|
|-----7--7--7--7--7--7--7--7-----|-----7--7--7--7--7--7--7--7-----|
|-----7--7--7--7--7--7--7--7-----|-----9--9--9--9--9--9--9--9-----|
|-----5--5--5--5--5--5--5--5-----|-----9--9--9--9--9--9--9--9-----|
|-----5--5--5--5--5--5--5--5-----|-----7--7--7--7--7--7--7--7-----|

     "Still today I"                   "have so much to"

|-----5--5--5--5--5--5--5--5-----|-----5--5--5--5--5--5--5--5-----|
|-----5--5--5--5--5--5--5--5-----|-----5--5--5--5--5--5--5--5-----|
|-----6--6--6--6--6--6--6--6-----|-----6--6--6--6--6--6--6--6-----|
|-----7--7--7--7--7--7--7--7-----|-----7--7--7--7--7--7--7--7-----|
|-----7--7--7--7--7--7--7--7-----|-----7--7--7--7--7--7--7--7-----|
|-----5--5--5--5--5--5--5--5-----|-----5--5--5--5--5--5--5--5-----|

      "burn."

|-----5--5--5--5--5--5--5--5-----|-----7--7--7--7--7--7--7--7-----|
|-----5--5--5--5--5--5--5--5-----|-----7--7--7--7--7--7--7--7-----|
|-----7--7--7--7--7--7--7--7-----|-----7--7--7--7--7--7--7--7-----|
|-----7--7--7--7--7--7--7--7-----|-----9--9--9--9--9--9--9--9-----|
|-----5--5--5--5--5--5--5--5-----|-----9--9--9--9--9--9--9--9-----|
|-----5--5--5--5--5--5--5--5-----|-----7--7--7--7--7--7--7--7-----|

     "Yesterday I"                    "longed to die,"

|-----5--5--5--5--5--5--5--5-----|-----5--5--5--5--5--5--5--5-----|
|-----5--5--5--5--5--5--5--5-----|-----5--5--5--5--5--5--5--5-----|
|-----6--6--6--6--6--6--6--6-----|-----6--6--6--6--6--6--6--6-----|
|-----7--7--7--7--7--7--7--7-----|-----7--7--7--7--7--7--7--7-----|
|-----7--7--7--7--7--7--7--7-----|-----7--7--7--7--7--7--7--7-----|
|-----5--5--5--5--5--5--5--5-----|-----5--5--5--5--5--5--5--5-----|

     "fell to the ground, and the ground caught me."

|-----5--5--5--5--5--5--5--5-----|-----7--7--7--7--7--7--7--7-----|
|-----5--5--5--5--5--5--5--5-----|-----7--7--7--7--7--7--7--7-----|
|-----7--7--7--7--7--7--7--7-----|-----7--7--7--7--7--7--7--7-----|
|-----7--7--7--7--7--7--7--7-----|-----9--9--9--9--9--9--9--9-----|
|-----5--5--5--5--5--5--5--5-----|-----9--9--9--9--9--9--9--9-----|
|-----5--5--5--5--5--5--5--5-----|-----7--7--7--7--7--7--7--7-----|

     "Now today I"                     "question why I"

|-----5--5--5--5--5--5--5--5-----|-----5--5--5--5--5--5--5--5-----|
|-----5--5--5--5--5--5--5--5-----|-----5--5--5--5--5--5--5--5-----|
|-----6--6--6--6--6--6--6--6-----|-----6--6--6--6--6--6--6--6-----|
|-----7--7--7--7--7--7--7--7-----|-----7--7--7--7--7--7--7--7-----|
|-----7--7--7--7--7--7--7--7-----|-----7--7--7--7--7--7--7--7-----|
|-----5--5--5--5--5--5--5--5-----|-----5--5--5--5--5--5--5--5-----|

     "fell."

|--------------------------------|--------------------------------|
|--------------------------------|--------------------------------|
|-----7--------------------------|--------------------------------|
|-----9--------------------------|--------------------------------|
|-----9--------------------------|--------------------------------|
|-----7--------------------------|--------------------------------|

     "I fell."

|--------------------------------|--------------------------------|
|--------------------------------|--------------------------------|
|--------------------------------|--------------------------------|
|--------------------------------|--------------------------------|
|--------------------------------|--------------------------------|
|--------------------------------|--------------------------------|


Verse III (Clean) 02:01 - 02:29

|--------------------------------|--------------------------------|
|--------------------------------|--------------------------------|
|--------------------------------|--------------------------------|
|--------------------------------|--------------------------------|
|--------------------------------|--------------------------------|
|-----7--7--7--7--7--7--7--7-----|-----5--5--5--5--5--5--5--5-----|
     PM PM PM PM PM PM PM PM          PM PM PM PM PM PM PM PM
                 "Deities fell to decoys,"

|--------------------------------|--------------------------------|
|--------------------------------|--------------------------------|
|--------------------------------|--------------------------------|
|--------------------------------|--------------------------------|
|--------------------------------|--------------------------------|
|-----3--3--3--3--3--3--3--3-----|-----5--5--5--5--5--5--5--5-----|
     PM PM PM PM PM PM PM PM          PM PM PM PM PM PM PM PM

|--------------------------------|--------------------------------|
|--------------------------------|--------------------------------|
|--------------------------------|--------------------------------|
|--------------------------------|--------------------------------|
|--------------------------------|--------------------------------|
|-----7--7--7--7--7--7--7--7-----|-----2--2--2--2--2--2--2--2-----|
     PM PM PM PM PM PM PM PM          PM PM PM PM PM PM PM PM
              "tainting whats pure. Lets cleanse them"

|--------------------------------|--------------------------------|
|--------------------------------|--------------------------------|
|--------------------------------|--------------------------------|
|--------------------------------|--------------------------------|
|--------------------------------|--------------------------------|
|-----3--3--3--3--3--3--3--3-----|-----5--5--5--5--5--5--5--5-----|
     PM PM PM PM PM PM PM PM          PM PM PM PM PM PM PM PM
     "all."

(Release palm mute)
|--------------------------------|--------------------------------|
|--------------------------------|--------------------------------|
|--------------------------------|--------------------------------|
|--------------------------------|--------------------------------|
|--------------------------------|--------------------------------|
|-----7--7--7--7--7--7--7--7-----|-----5--5--5--5--5--5--5--5-----|

                 "Infinite life reclaimed, as the"

|--------------------------------|--------------------------------|
|--------------------------------|--------------------------------|
|--------------------------------|--------------------------------|
|--------------------------------|--------------------------------|
|--------------------------------|-----5--5--5--5-----------------|
|-----3--3--3--3--3--3--3--3-----|-----------------5--5--5--5-----|

     "shadows kill they are overshadowed."

|--------------------------------|--------------------------------|
|--------------------------------|--------------------------------|
|--------------------------------|--------------------------------|
|--------------------------------|--------------------------------|
|--------------------------------|--------------------------------|
|-----7--7--7--7--7--7--7--7-----|-----2--2--2--2--2--2--2--2-----|

              "We'll burn as they fade into"

(Heavy distortion through Extended Chorus until Bridge)
|--------------------------------|--------------------------------|
|--------------------------------|--------------------------------|
|-----4-----------4--------------|-----4-----------4--------------|
|-----5-----------5--------------|-----5-----------5--------------|
|-----5-----------5--------------|-----5-----------5--------------|
|-----3-----------3--------------|-----3-----------3--------------|

     "nothing."

|--------------------------------|--------------------------------|
|--------------------------------|--------------------------------|
|-----6-----------6--------------|-----14-14-14-14-14-------------|
|-----7-----------7--------------|-----14-14-14-14-14-------------|
|-----7-----------7--------------|-----12-12-12-12-12-------------|
|-----5-----------5--------------|-----12-12-12-12-12-------------|


Extended Chorus (Heavy Distortion) 02:30 - 03:14

|-----5--5--5--5--5--5--5--5-----|-----7--7--7--7--7--7--7--7-----|
|-----5--5--5--5--5--5--5--5-----|-----7--7--7--7--7--7--7--7-----|
|-----7--7--7--7--7--7--7--7-----|-----7--7--7--7--7--7--7--7-----|
|-----7--7--7--7--7--7--7--7-----|-----9--9--9--9--9--9--9--9-----|
|-----5--5--5--5--5--5--5--5-----|-----9--9--9--9--9--9--9--9-----|
|-----5--5--5--5--5--5--5--5-----|-----7--7--7--7--7--7--7--7-----|

     "Yesterday I"                      "burnt the sky,"

|-----5--5--5--5--5--5--5--5-----|-----5--5--5--5--5--5--5--5-----|
|-----5--5--5--5--5--5--5--5-----|-----5--5--5--5--5--5--5--5-----|
|-----6--6--6--6--6--6--6--6-----|-----6--6--6--6--6--6--6--6-----|
|-----7--7--7--7--7--7--7--7-----|-----7--7--7--7--7--7--7--7-----|
|-----7--7--7--7--7--7--7--7-----|-----7--7--7--7--7--7--7--7-----|
|-----5--5--5--5--5--5--5--5-----|-----5--5--5--5--5--5--5--5-----|

     "looked to the ground and wrapped it around me."

|-----5--5--5--5--5--5--5--5-----|-----7--7--7--7--7--7--7--7-----|
|-----5--5--5--5--5--5--5--5-----|-----7--7--7--7--7--7--7--7-----|
|-----7--7--7--7--7--7--7--7-----|-----7--7--7--7--7--7--7--7-----|
|-----7--7--7--7--7--7--7--7-----|-----9--9--9--9--9--9--9--9-----|
|-----5--5--5--5--5--5--5--5-----|-----9--9--9--9--9--9--9--9-----|
|-----5--5--5--5--5--5--5--5-----|-----7--7--7--7--7--7--7--7-----|

     "Still today I"                   "have so much to"

|-----5--5--5--5--5--5--5--5-----|-----5--5--5--5--5--5--5--5-----|
|-----5--5--5--5--5--5--5--5-----|-----5--5--5--5--5--5--5--5-----|
|-----6--6--6--6--6--6--6--6-----|-----6--6--6--6--6--6--6--6-----|
|-----7--7--7--7--7--7--7--7-----|-----7--7--7--7--7--7--7--7-----|
|-----7--7--7--7--7--7--7--7-----|-----7--7--7--7--7--7--7--7-----|
|-----5--5--5--5--5--5--5--5-----|-----5--5--5--5--5--5--5--5-----|

      "burn."

|-----5--5--5--5--5--5--5--5-----|-----7--7--7--7--7--7--7--7-----|
|-----5--5--5--5--5--5--5--5-----|-----7--7--7--7--7--7--7--7-----|
|-----7--7--7--7--7--7--7--7-----|-----7--7--7--7--7--7--7--7-----|
|-----7--7--7--7--7--7--7--7-----|-----9--9--9--9--9--9--9--9-----|
|-----5--5--5--5--5--5--5--5-----|-----9--9--9--9--9--9--9--9-----|
|-----5--5--5--5--5--5--5--5-----|-----7--7--7--7--7--7--7--7-----|

     "Yesterday I"                    "longed to die,"

|-----5--5--5--5--5--5--5--5-----|-----5--5--5--5--5--5--5--5-----|
|-----5--5--5--5--5--5--5--5-----|-----5--5--5--5--5--5--5--5-----|
|-----6--6--6--6--6--6--6--6-----|-----6--6--6--6--6--6--6--6-----|
|-----7--7--7--7--7--7--7--7-----|-----7--7--7--7--7--7--7--7-----|
|-----7--7--7--7--7--7--7--7-----|-----7--7--7--7--7--7--7--7-----|
|-----5--5--5--5--5--5--5--5-----|-----5--5--5--5--5--5--5--5-----|

     "fell to the ground, and the ground caught me."

|-----5--5--5--5--5--5--5--5-----|-----7--7--7--7--7--7--7--7-----|
|-----5--5--5--5--5--5--5--5-----|-----7--7--7--7--7--7--7--7-----|
|-----7--7--7--7--7--7--7--7-----|-----7--7--7--7--7--7--7--7-----|
|-----7--7--7--7--7--7--7--7-----|-----9--9--9--9--9--9--9--9-----|
|-----5--5--5--5--5--5--5--5-----|-----9--9--9--9--9--9--9--9-----|
|-----5--5--5--5--5--5--5--5-----|-----7--7--7--7--7--7--7--7-----|

     "Now today I"                     "question why I"

|-----5--5--5--5--5--5--5--5-----|-----5--5--5--5--5--5--5--5-----|
|-----5--5--5--5--5--5--5--5-----|-----5--5--5--5--5--5--5--5-----|
|-----6--6--6--6--6--6--6--6-----|-----6--6--6--6--6--6--6--6-----|
|-----7--7--7--7--7--7--7--7-----|-----7--7--7--7--7--7--7--7-----|
|-----7--7--7--7--7--7--7--7-----|-----7--7--7--7--7--7--7--7-----|
|-----5--5--5--5--5--5--5--5-----|-----5--5--5--5--5--5--5--5-----|

     "fell."

|--------------------------------|--------------------------------|
|--------------------------------|--------------------------------|
|----7------7-------4----6-------|--------6--6--6--6--6--6--6-----|
|----9------9-------5----7-------|--------7--7--7--7--7--7--7-----|
|----9------9-------5----7-------|--------7--7--7--7--7--7--7-----|
|----7------7-------3----5-------|--------5--5--5--5--5--5--5-----|

                                         "So what can help me"

|--------------------------------|--------------------------------|
|--------------------------------|--------------------------------|
|----7------7-------4----6-------|--------6--6--6--6--6--6--6-----|
|----9------9-------5----7-------|--------7--7--7--7--7--7--7-----|
|----9------9-------5----7-------|--------7--7--7--7--7--7--7-----|
|----7------7-------3----5-------|--------5--5--5--5--5--5--5-----|

                                         "to understand, somehow,"

|--------------------------------|--------------------------------|
|--------------------------------|--------------------------------|
|----7------7-------4----6-------|--------6--6--6--6--6--6--6-----|
|----9------9-------5----7-------|--------7--7--7--7--7--7--7-----|
|----9------9-------5----7-------|--------7--7--7--7--7--7--7-----|
|----7------7-------3----5-------|--------5--5--5--5--5--5--5-----|

                                         "why it always"

|-----5--5--5--5--5--5--5--5-----|-----5--5--5--5--5--5--5--5-----|
|-----5--5--5--5--5--5--5--5-----|-----5--5--5--5--5--5--5--5-----|
|-----4--4--4--4--4--4--4--4-----|-----4--4--4--4--4--4--4--4-----|
|-----5--5--5--5--5--5--5--5-----|-----5--5--5--5--5--5--5--5-----|
|-----5--5--5--5--5--5--5--5-----|-----5--5--5--5--5--5--5--5-----|
|-----3--3--3--3--3--3--3--3-----|-----3--3--3--3--3--3--3--3-----|
     PM PM PM PM PM PM PM PM            (Release palm mute)
     "pains me to breathe?"

|-----5--5--5--5--5--5--5--5-----|-----5--5--5--5--5--5--5--5-----|
|-----5--5--5--5--5--5--5--5-----|-----5--5--5--5--5--5--5--5-----|
|-----7--7--7--7--7--7--7--7-----|-----7--7--7--7--7--7--7--7-----|
|-----7--7--7--7--7--7--7--7-----|-----7--7--7--7--7--7--7--7-----|
|-----5--5--5--5--5--5--5--5-----|-----5--5--5--5--5--5--5--5-----|
|-----5--5--5--5--5--5--5--5-----|-----5--5--5--5--5--5--5--5-----|

     "Pains me to breathe."


Bridge (Clean) 03:15 - 03:58

|--------------------------------|--------------------------------|
|--------------------------------|--------------------------------|
|-----------------0--------------|--------------------------------|
|-----------4-----------4--------|-------------------4------------|
|-----5--------------------------|-------------5-----------5------|
|--------------------------------|------7-------------------------|

|--------------------------------|--------------------------------|
|--------------------------------|--------------------------------|
|--------------------------------|--------------------------------|
|---------------------7----------|----------------------0---------|
|-----------4--------------------|------4------------4-----4------|
|-----5-----------5--------5-----|-------------5------------------|

|--------------------------------|--------------------------------|
|--------------------------------|--------------------------------|
|-----------------0--------------|--------------------------------|
|-----------4-----------4--------|-------------------4------------|
|-----5--------------------------|-------------5-----------5------|
|--------------------------------|------7-------------------------|

|--------------------------------|--------------------------------|
|--------------------------------|--------------------------------|
|--------------------------------|--------------------------------|
|---------------------7----------|----------------------0---------|
|-----------4--------------------|------4------------4-----4------|
|-----5-----------5--------5-----|-------------5------------------|

|--------------------------------|--------------------------------|
|--------------------------------|--------------------------------|
|-----------------0--------------|--------------------------------|
|-----------4-----------4--------|-------------------4------------|
|-----5--------------------------|-------------5-----------5------|
|--------------------------------|------7-------------------------|

     "We're no"                        "longer confined"

|--------------------------------|--------------------------------|
|--------------------------------|--------------------------------|
|--------------------------------|--------------------------------|
|---------------------7----------|----------------------0---------|
|-----------4--------------------|------4------------4-----4------|
|-----5-----------5--------5-----|-------------5------------------|

                                            "because yesterday"

|--------------------------------|--------------------------------|
|--------------------------------|--------------------------------|
|-----------------0--------------|--------------------------------|
|-----------4-----------4--------|-------------------4------------|
|-----5--------------------------|-------------5-----------5------|
|--------------------------------|------7-------------------------|

     "I..."                            "I burnt the sky"

|--------------------------------|--------------------------------|
|--------------------------------|--------------------------------|
|--------------------------------|--------------------------------|
|---------------------7----------|----------------------0---------|
|-----------4--------------------|------4------------4-----4------|
|-----5-----------5--------5-----|-------------5------------------|

|--------------------------------|--------------------------------|
|--------------------------------|--------------------------------|
|--------7--------7--------------|---------7--------7-------------|
|-----------4--------4-----------|------------0--------0----------|
|-----5--------5--------5--------|------4--------4--------4p0-----|
|--------------------------------|--------------------------------|

     "We're no"                        "longer confined"

|--------------------------------|--------------------------------|
|--------------------------------|--------------------------------|
|--------------------------------|--------------------------------|
|--------7--------7--------------|--------11-------11-------------|
|-----------7--------7-----------|-----------11-------11----------|
|-----5--------5--------5/9------|------9--------9--------9-------|

                                            "because yesterday"

|--------------------------------|--------------------------------|
|--------------------------------|--------------------------------|
|--------7--------7--------------|--------11-------11-------------|
|-----------4--------4-----------|------------7--------7----------|
|-----5--------5--------5/9------|------9--------9--------9-------|
|--------------------------------|--------------------------------|

     "I..."                            "I burnt the sky"

(Heavy Distortion)
|--------------------------------|--------------------------------|
|--------------------------------|--------------------------------|
|--------------------------------|--------------------------------|
|-----7--7--7--7--7--7--7--7-----|-----9--9--9--9--9--9--9--9-----|
|-----x--x--x--x--x--x--x--x-----|-----x--x--x--x--x--x--x--x-----|
|-----5--5--5--5--5--5--5--5-----|-----7--7--7--7--7--7--7--7-----|

|--------------------------------|--------------------------------|
|--------------------------------|--------------------------------|
|--------------------------------|----14-14-14-14-14--------------|
|----11-11-11-11-11-11-11-11-----|-----x--x--x--x--x--------------|
|-----x--x--x--x--x--x--x--x-----|----12-12-12-12-12--------------|
|-----9--9--9--9--9--9--9--9-----|--------------------------------|

                                                     "OH"


Chorus (Heavy Distortion) 03:59 - 4:25

|-----5--5--5--5--5--5--5--5-----|-----7--7--7--7--7--7--7--7-----|
|-----5--5--5--5--5--5--5--5-----|-----7--7--7--7--7--7--7--7-----|
|-----7--7--7--7--7--7--7--7-----|-----7--7--7--7--7--7--7--7-----|
|-----7--7--7--7--7--7--7--7-----|-----9--9--9--9--9--9--9--9-----|
|-----5--5--5--5--5--5--5--5-----|-----9--9--9--9--9--9--9--9-----|
|-----5--5--5--5--5--5--5--5-----|-----7--7--7--7--7--7--7--7-----|

     "Yesterday I"                      "burnt the sky,"

|-----5--5--5--5--5--5--5--5-----|-----5--5--5--5--5--5--5--5-----|
|-----5--5--5--5--5--5--5--5-----|-----5--5--5--5--5--5--5--5-----|
|-----6--6--6--6--6--6--6--6-----|-----6--6--6--6--6--6--6--6-----|
|-----7--7--7--7--7--7--7--7-----|-----7--7--7--7--7--7--7--7-----|
|-----7--7--7--7--7--7--7--7-----|-----7--7--7--7--7--7--7--7-----|
|-----5--5--5--5--5--5--5--5-----|-----5--5--5--5--5--5--5--5-----|

     "looked to the ground and wrapped it around me."

|-----5--5--5--5--5--5--5--5-----|-----7--7--7--7--7--7--7--7-----|
|-----5--5--5--5--5--5--5--5-----|-----7--7--7--7--7--7--7--7-----|
|-----7--7--7--7--7--7--7--7-----|-----7--7--7--7--7--7--7--7-----|
|-----7--7--7--7--7--7--7--7-----|-----9--9--9--9--9--9--9--9-----|
|-----5--5--5--5--5--5--5--5-----|-----9--9--9--9--9--9--9--9-----|
|-----5--5--5--5--5--5--5--5-----|-----7--7--7--7--7--7--7--7-----|

     "Still today I"                   "have so much to"

|-----5--5--5--5--5--5--5--5-----|--------------------------------|
|-----5--5--5--5--5--5--5--5-----|--------------------------------|
|-----6--6--6--6--6--6--6--6-----|--------------------------------|
|-----7--7--7--7--7--7--7--7-----|----/12-12-12-12-12-12-12-12----|
|-----7--7--7--7--7--7--7--7-----|----/-x--x--x--x--x--x--x--x----|
|-----5--5--5--5--5--5--5--5-----|----/-9--9--9--9--9--9--9--9----|

      "burn."    "To Burn."                   "To Burn."

|-----5--5--5--5--5--5--5--5-----|-----7--7--7--7--7--7--7--7-----|
|-----5--5--5--5--5--5--5--5-----|-----7--7--7--7--7--7--7--7-----|
|-----7--7--7--7--7--7--7--7-----|-----7--7--7--7--7--7--7--7-----|
|-----7--7--7--7--7--7--7--7-----|-----9--9--9--9--9--9--9--9-----|
|-----5--5--5--5--5--5--5--5-----|-----9--9--9--9--9--9--9--9-----|
|-----5--5--5--5--5--5--5--5-----|-----7--7--7--7--7--7--7--7-----|

     "Yesterday I"                    "longed to die,"
     "(We're no longer confined)"

|-----5--5--5--5--5--5--5--5-----|-----5--5--5--5--5--5--5--5-----|
|-----5--5--5--5--5--5--5--5-----|-----5--5--5--5--5--5--5--5-----|
|-----6--6--6--6--6--6--6--6-----|-----6--6--6--6--6--6--6--6-----|
|-----7--7--7--7--7--7--7--7-----|-----7--7--7--7--7--7--7--7-----|
|-----7--7--7--7--7--7--7--7-----|-----7--7--7--7--7--7--7--7-----|
|-----5--5--5--5--5--5--5--5-----|-----5--5--5--5--5--5--5--5-----|

     "fell to the ground, and the ground caught me."
                                            "(because yesterday)"

|-----5--5--5--5--5--5--5--5-----|-----7--7--7--7--7--7--7--7-----|
|-----5--5--5--5--5--5--5--5-----|-----7--7--7--7--7--7--7--7-----|
|-----7--7--7--7--7--7--7--7-----|-----7--7--7--7--7--7--7--7-----|
|-----7--7--7--7--7--7--7--7-----|-----9--9--9--9--9--9--9--9-----|
|-----5--5--5--5--5--5--5--5-----|-----9--9--9--9--9--9--9--9-----|
|-----5--5--5--5--5--5--5--5-----|-----7--7--7--7--7--7--7--7-----|

     "Now today I"                     "question why I"
     "(I...)"                            "(I burnt the sky)"

|-----5--5--5--5--5--5--5--5-----|-----5--5--5--5--5--5--5--5-----|
|-----5--5--5--5--5--5--5--5-----|-----5--5--5--5--5--5--5--5-----|
|-----6--6--6--6--6--6--6--6-----|-----6--6--6--6--6--6--6--6-----|
|-----7--7--7--7--7--7--7--7-----|-----7--7--7--7--7--7--7--7-----|
|-----7--7--7--7--7--7--7--7-----|-----7--7--7--7--7--7--7--7-----|
|-----5--5--5--5--5--5--5--5-----|-----5--5--5--5--5--5--5--5-----|

     "fell."


Outro (Heavy Distortion) 4:25 - 4:38

|-----5--5--5--5--5--5--5--5-----|-----7--7--7--7--7--7--7--7-----|
|-----5--5--5--5--5--5--5--5-----|-----7--7--7--7--7--7--7--7-----|
|-----7--7--7--7--7--7--7--7-----|-----7--7--7--7--7--7--7--7-----|
|-----7--7--7--7--7--7--7--7-----|-----9--9--9--9--9--9--9--9-----|
|-----5--5--5--5--5--5--5--5-----|-----9--9--9--9--9--9--9--9-----|
|-----5--5--5--5--5--5--5--5-----|-----7--7--7--7--7--7--7--7-----|

     "I FELL (We're no longer confined)"

|-----5--5--5--5--5--5--5--5-----|-----5--5--5--5--3--3--3--3-----|
|-----5--5--5--5--5--5--5--5-----|-----5--5--5--5--3--3--3--3-----|
|-----6--6--6--6--6--6--6--6-----|-----6--6--6--6--4--4--4--4-----|
|-----7--7--7--7--7--7--7--7-----|-----7--7--7--7--5--5--5--5-----|
|-----7--7--7--7--7--7--7--7-----|-----7--7--7--7--5--5--5--5-----|
|-----5--5--5--5--5--5--5--5-----|-----5--5--5--5--3--3--3--3-----|

                                            "(because yesterday)"

|-----5--5--5--5--5--5--5--5-----|-----7--7--7--7--7--7--7--7-----|
|-----5--5--5--5--5--5--5--5-----|-----7--7--7--7--7--7--7--7-----|
|-----7--7--7--7--7--7--7--7-----|-----7--7--7--7--7--7--7--7-----|
|-----7--7--7--7--7--7--7--7-----|-----9--9--9--9--9--9--9--9-----|
|-----5--5--5--5--5--5--5--5-----|-----9--9--9--9--9--9--9--9-----|
|-----5--5--5--5--5--5--5--5-----|-----7--7--7--7--7--7--7--7-----|

     "I FELL (I...)"                   "(I burnt the sky)"

|-----5--5--5--5--5--5--5--5-----|-----5--5--5--5--5--5--5--5-----|
|-----5--5--5--5--5--5--5--5-----|-----5--5--5--5--5--5--5--5-----|
|-----6--6--6--6--6--6--6--6-----|-----6--6--6--6--6--6--6--6-----|
|-----7--7--7--7--7--7--7--7-----|-----7--7--7--7--7--7--7--7-----|
|-----7--7--7--7--7--7--7--7-----|-----7--7--7--7--7--7--7--7-----|
|-----5--5--5--5--5--5--5--5-----|-----5--5--5--5--5--5--5--5-----|


Solo (Heavy Distortion) 4:38 - 5:02
(Rhythm/Lead played over each other)

Guitar I - Lead

|--------------------------------|--------------------------------|
|----15----------15p14-----------|----14---14---14------14--------|
|--------------------------------|-------------------------14-----|
|--------------------------------|--------------------------------|
|--------------------------------|--------------------------------|
|--------------------------------|--------------------------------|

|--------------------------------|--------------------------------|
|----14--------------------------|----------17----17----15/17-----|
|-------14--14-14----------------|-------14----------14-----------|
|--------------------------------|--------------------------------|
|--------------------------------|--------------------------------|
|--------------------------------|--------------------------------|

Guitar II - Rhythm

|-----5-----5-----5-----5--------|-----7-----7-----7-----7--------|
|-----5-----5-----5-----5--------|-----7-----7-----7-----7--------|
|-----7-----7-----7-----7--------|-----7-----7-----7-----7--------|
|-----7-----7-----7-----7--------|-----9-----9-----9-----9--------|
|-----5-----5-----5-----5--------|-----9-----9-----9-----9--------|
|-----5-----5-----5-----5--------|-----7-----7-----7-----7--------|

     "I fell."

|-----5-----5-----5-----5--------|-----5-----5-----5-----5--------|
|-----5-----5-----5-----5--------|-----5-----5-----5-----5--------|
|-----6-----6-----6-----6--------|-----6-----6-----6-----6--------|
|-----7-----7-----7-----7--------|-----7-----7-----7-----7--------|
|-----7-----7-----7-----7--------|-----7-----7-----7-----7--------|
|-----5-----5-----5-----5--------|-----5-----5-----5-----5--------|


Guitar I - Lead

|--------------------------------|--------------------------------|
|----15---------15-----15h17p15--|----14----14----14----14-14-----|
|--------------------------------|--------------------------------|
|--------------------------------|--------------------------------|
|--------------------------------|--------------------------------|
|--------------------------------|--------------------------------|

|--------------------------------|--------------------------------|
|----14--------------------------|----14----14----14------14h15---|
|------14--14---14-----14--14----|-14-----------------------------|
|--------------------------------|--------------------------------|
|--------------------------------|--------------------------------|
|--------------------------------|--------------------------------|

Guitar II - Rhythm

|-----5-----5-----5-----5--------|-----7-----7-----7-----7--------|
|-----5-----5-----5-----5--------|-----7-----7-----7-----7--------|
|-----7-----7-----7-----7--------|-----7-----7-----7-----7--------|
|-----7-----7-----7-----7--------|-----9-----9-----9-----9--------|
|-----5-----5-----5-----5--------|-----9-----9-----9-----9--------|
|-----5-----5-----5-----5--------|-----7-----7-----7-----7--------|

|-----5-----5-----5-----5--------|-----5-----5-----5-----5--------|
|-----5-----5-----5-----5--------|-----5-----5-----5-----5--------|
|-----6-----6-----6-----6--------|-----6-----6-----6-----6--------|
|-----7-----7-----7-----7--------|-----7-----7-----7-----7--------|
|-----7-----7-----7-----7--------|-----7-----7-----7-----7--------|
|-----5-----5-----5-----5--------|-----5-----5-----5-----5--------|


Guitar I - Lead

|--------------------------------|--------------------------------|
|----15----15----15-15-15p14-----|----14----14----14-14-14--------|
|--------------------------------|--------------------------14----|
|--------------------------------|--------------------------------|
|--------------------------------|--------------------------------|
|--------------------------------|--------------------------------|

|--------------------------------|--------------------------------|
|--------------------------------|----17----17----15/17-----------|
|----14----14----14-14-----------|-14----------14-----------------|
|--------------------------------|--------------------------------|
|--------------------------------|--------------------------------|
|--------------------------------|--------------------------------|

Guitar II - Rhythm

|-----5-----5-----5-----5--------|-----7-----7-----7-----7--------|
|-----5-----5-----5-----5--------|-----7-----7-----7-----7--------|
|-----7-----7-----7-----7--------|-----7-----7-----7-----7--------|
|-----7-----7-----7-----7--------|-----9-----9-----9-----9--------|
|-----5-----5-----5-----5--------|-----9-----9-----9-----9--------|
|-----5-----5-----5-----5--------|-----7-----7-----7-----7--------|

|-----5-----5-----5-----5--------|-----5-----5-----5-----5--------|
|-----5-----5-----5-----5--------|-----5-----5-----5-----5--------|
|-----6-----6-----6-----6--------|-----6-----6-----6-----6--------|
|-----7-----7-----7-----7--------|-----7-----7-----7-----7--------|
|-----7-----7-----7-----7--------|-----7-----7-----7-----7--------|
|-----5-----5-----5-----5--------|-----5-----5-----5-----5--------|

                                                   "because yesterday I..."

Guitar I - Lead

|--------------------------------|--------------------------------|
|----15---------15-----15h17p15--|----14----14----14----14--------|
|--------------------------------|--------------------------------|
|--------------------------------|--------------------------------|
|--------------------------------|--------------------------------|
|--------------------------------|--------------------------------|
                                                        (Let ring)
Guitar II - Rhythm

|-----5--5--5--5--7--7--7--7-----|-----5--------------------------|
|-----5--5--5--5--7--7--7--7-----|-----5--------------------------|
|-----7--7--7--7--7--7--7--7-----|-----6--------------------------|
|-----7--7--7--7--9--9--9--9-----|-----7--------------------------|
|-----5--5--5--5--9--9--9--9-----|-----7--------------------------|
|-----5--5--5--5--7--7--7--7-----|-----5--------------------------|
                                      (Let ring)

Guitar III (Overdub)
|--------------------------------|-----14-------------------------|
|--------------------------------|-----16b18----------------------|
|--------------------------------|--------------------------------|
|--------------------------------|--------------------------------|
|--------------------------------|--------------------------------|
|--------------------------------|--------------------------------|
                                       (Let ring)

Duration Legend
---------------
W - whole
H - half
Q - quarter
E - 8th
S - 16th
T - 32nd
X - 64th
. - note dotted
|-n-|  - n-tuplets


Tablature Legend
----------------
L - tied note
x - dead note
g - grace note
(n) - ghost note
> - accentuded note
NH - natural harmonic
AH - artificial harmonic
TH - tapped harmonic
SH - semi harmonic
PH - pitch harmonic
PM - palm mute
h - hammer on
p - pull off
b - bend
br - bendRelease
pb - preBend
pbr - preBendRelease
brb - bendReleaseBend
\n/ - tremolo bar dip
\n - tremolo bar dive
-/n - tremolo bar Release up
/n\ - tremolo bar inverted dip
/n - tremolo bar return
-\n - tremolo bar Release down
S - shift slide
s - legato slide
/ -  slide into from below or out of upwards
\ -  slide into from above or out of downwards
~ - vibrato
W - wide vibrato
tr - tril'
TP - tremolo picking
T - tapping
S - slap
P - pop
< - fade in
^ - brush up
v - brush down





Comments


Popular Afi tabs & chords
Red Hat Bass Tabs
Your Name Here Intro Bass Tabs
Clove Smoke Catharsis 1 Drum Tabs
6 To 8 2 Tabs
A Story At Three Tabs
But Home Is Nowhere (Intro) Tabs
Midnight Sun 1 Tabs
Ny-quil Tabs
Paper Airplanes Makeshift Wings 3 Tabs
Veronica Sawyer Smokes Tabs


Song lyrics



↑ Back to top | Tablatures and chords are parodies/interpretations of the original songs. You may use it for private study, scholarship, research or language learning purposes only
© 2014 AZChords.com Contact us | Privacy policy | DMCA | Add/correct tabs | Request tabs | Top 50 tabs