>
 >
What It Takes

What It Takes Bass Tabs

Aerosmith - What It Takes chords, tabs, tablatures, lyrics

Guitar lessons | Add/correct | Request | Top 50 tabs Artists:  A B C D E F G H I J K L M N O P Q R S T U V W X Y Z 0-9

What It Takes Bass Tabs – Aerosmith

CD, Sheet music, Poster

Do you like What It Takes? Share with your friends now
Bass TabsChordsChords v2TabsTabs v2Tabs v3
-------------------------------------------------------------------------------
			     What it Takes - Aerosmith 
-------------------------------------------------------------------------------

Tuning: Eb-Ab-Db-Gb


Gb|--------|------------------------|---------------------------------|-------------------------|
Db|--------|------------------------|---------------------------------|-------------------------|
Ab|---R----|------------------------|-5-----5--5--5---5---5-----5-----|-------7---7---5---5---3-|
Eb|--------|-3-----3--3--3---3----3-|------------------------5------5-|-0-----------------------|


Gb|---------------------|-------------------------------|-----------------------------------|
Db|-----------------5---|---------------------------5---|-----------------------------------|
Ab|-3-----3---3---------|-------------------------5-----|-5-----5-----5-----5---5-----5-----|
Eb|---------------------|-3-----3--3--3---3-------------|-----------5----5---------5-----5--|


Gb|---------------------------|--------------------|-------------------------------|
Db|---------------------------|--------------------|---------------------------5---|
Ab|-------7---7---5---5---3---|-3-----3---3----5---|-------------------------5-----|
Eb|-0-------------------------|--------------------|-3-----3--3--3---3-------------|


Gb|------------------------|------------------|-------------------|---------------------------|
Db|------------------------|------------------|-------------------|---------------------------|
Ab|-5----5-----5-----5---5-|-7-----7---7----5-|-3----3--3--3----3-|-5--5--5--5--5--5--5-----5-|
Eb|---------5-----5--------|------------------|-------------------|-----------------------5---|


Gb|----------------------------|--------------------------|--------------------------|
Db|----------------------------|-------------2---2---0----|--------------------------|
Ab|----------------------------|----------2---------------|-3-----3--3--3---3----3---|
Eb|-3-----3--3--3---3----3---2-|-0-----0------------------|--------------------------|


Gb|-----------------------|--------------------------------|---------------------------------|
Db|-----------------------|----------------------------3---|----------------------3----3---3-|
Ab|-1-----1--1--1---1---3-|--------------------------3---3-|-1----1----1--1---1-3----3-------|
Eb|-----------------------|-1----1--1---1--1---1---1-------|---------------------------------|


Gb|-----------------------------|---------------------|---------------------|--------|
Db|---------------------3-------|---------------------|---------------------|--------|
Ab|-----------------3-------3---|-1-----1---0-----0---|-5-----5---3-----3---|-2------|
Eb|-1-----1--1--1---------------|---------------------|---------------------|--------|


Gb|--------|---------------------|-------------------------------|--------------------------|
Db|--------|---------------------|---------------------3-----3---|----------------------5---|
Ab|-2------|-1-----1---4----4----|-------------------3-----3-----|--------------------------|
Eb|--------|---------------------|-1-----1---1---1---------------|-3-----3--3--3---3--------|


Gb|-------------------------------|---------------------------|-------------------------------|
Db|-------------------------6--7--|---------------------------|-------------------------------|
Ab|-5-----5-----5---5----5--------|-7-----7---7---5---5---3---|-3-----3--3--3---3----3--4--5--|
Eb|----------5--------------------|---------------------------|-------------------------------|


Gb|---------------------------|---------------------|------------------|--------------------------|
Db|-5-----5-----5-------5---5-|-------------------7-|------------------|--------------------------|
Ab|----------5------5---------|-5-----5---5----5----|-7-----7---7----5-|-3-----3---3---3----3---3-|
Eb|---------------------------|---------------------|------------------|--------------------------|


Gb|--------------------------|---------------------------------|--------------------------|
Db|--------------------------|-----------------------3-----3---|--------------------------|
Ab|-1-----1--1--1---1---3----|---------------------3-----3-----|-1-----1--1--1---1---3----|
Eb|--------------------------|-1-----1--1--1---1---------------|--------------------------|


Gb|--------------------------|---------------------|---------------------|--------|
Db|--------------------------|---------------------|---------------------|--------|
Ab|----------------------3---|-1-----1---0-----0---|-5-----5---3-----3---|-2------|
Eb|-1-----1--1--1---1--------|---------------------|---------------------|--------|


Gb|--------|---------------------|-------------------------|--------------------------|
Db|--------|------------------14\\\--------------------3---|--------------------------|
Ab|-2------|-1-----1---4----4----|-------------------3-----|-3-----3-----3---3----3---|
Eb|--------|---------------------|-1-----1---1---1---------|----------3---------------|


Gb|---------------------------|-------------------------------|--------------------------|
Db|---------------------------|-------------------------------|--------------------------|
Ab|-5-----5---5---3---3-------|-------------------------------|--------------------------|
Eb|-----------------------6---|-6-----6--6--6---6----6--0--6--|-1-----1--1--1---1----1---|


Gb|------------------------|--------------------------|------------------|---------------------|
Db|------------------------|--------------------------|------------------|---------------------|
Ab|-3-----3--3--3---3----3-|-5-----5---5---3---3------|------------------|-3-----3---3---3-3-5-|
Eb|------------------------|-----------------------6--|-6-----6---6----6-|---------------------|


Gb|--------------------------|-------------------------------|-----------------------------|
Db|--------------------------|---------------------------3---|-----------------------------|
Ab|--------------------------|-1-----1--1--1---1---1---3-----|-----------------------------|
Eb|-3-----3--3--3---3----1---|-------------------------------|-1-----1--1--1---1---0---8---|


Gb|------------------------|-----------------------------|------------------------|
Db|------------------------|-----------------------------|-6-----6---6---6----6---|
Ab|-8-----8---8---8---6----|-4-----4---4---4---6--5--6---|------------------------|
Eb|------------------------|-----------------------------|------------------------|


Gb|-------------------------------------|-----------------------------|-----------------------|
Db|-------------------------------------|-----------------------------|------------3----3-3---|
Ab|-3---3---3---3---3---6---3-6---3-6---|-----------------------------|----------3------------|
Eb|-------------------------------------|-6----6--6---6--6---6---8----|-1-----1---------------|


Gb|--------------------------|-------------------------------|------------------------|
Db|--------------------------|-------------------------------|------------------------|
Ab|--------------------------|-------------------------------|------------------------|
Eb|-6-----6--6--6---6---8----|-1-----1--1--1---1---1-----1---|-6---6----6---5-----5---|


Gb|---------------------|--------|-------|--------|---------------------|---------------------|
Db|---------------------|--------|-------|--------|---------------------|----------------3----|
Ab|-5-----5---3-----3---|-2------|-2-----|-2------|-1-----1---4----4----|---------------------|
Eb|---------------------|--------|-------|--------|---------------------|-1-----1---1---------|


Gb|-----------------|--------------------------|---------------------|---------------------|
Db|-----------------|--------------------------|---------------------|---------------------|
Ab|-1-----1---4-----|--------------------------|-5-----5---5----8----|-1-----1---1----3----|
Eb|-----------------|-1-----1--1--1---1----1---|---------------------|---------------------|


Gb|-------------|---------------------|---------------------------|-14------14------14------14-----|
Db|-------------|---------------------|---------------------------|-----15------15------15------15-|
Ab|-------------|-5-----5---5---5---8-|-1-----1---1---1---1--2--3-|--------------------------------|
Eb|-1-----1---1-|---------------------|---------------------------|--------------------------------|


Gb|---------------------------------|-15------15------15------15-16-17--|------------------------|
Db|-12--15--12--15--12--15--15--15--|-----15------15------15------------|------------------------|
Ab|---------------------------------|-----------------------------------|------------------------|
Eb|---------------------------------|-----------------------------------|-1-----1---1---1---0----|


Gb|---------------------|---------------------|---------------------|-----------------------------|
Db|---------------------|---------------------|---------------------|-----------------------------|
Ab|-5-----5---5---5---8-|---------------------|-------------------7-|-5-----5---5---5---5--7--8---|
Eb|---------------------|-6-----6---6---6---8-|-1-----1---1---1-----|-----------------------------|


Gb|---------------------------------|------------------------|------------------------|
Db|-8-----8-----8-----8---8-----10--|------------------------|-12----12--12--12--12---|
Ab|----------8-----8---------8------|-8-----8---8---8---8----|------------------------|
Eb|---------------------------------|------------------------|------------------------|


Gb|------------------------|--------|--------|
Db|-8-----8---8---8---10---|--------|--------|
Ab|------------------------|--------|--------|
Eb|------------------------|-1------|-1------|





Comments


Popular Aerosmith tabs & chords
Dude (Looks Like A Lady) Bass Tabs
Same Old Song And Dance Intro Bass Tabs
Walk This Way Live Bass Tabs
Angel 2 Tabs
Dude (Looks Like A Lady) Tabs
Fine Tabs
Mama Kin Tabs
Permanent Vacation Tabs
Seasons Of Wither 1 Tabs
Somebody 1 Tabs


Song lyrics



↑ Back to top | Tablatures and chords are parodies/interpretations of the original songs. You may use it for private study, scholarship, research or language learning purposes only
© 2014 AZChords.com Contact us | Privacy policy | DMCA | Add/correct tabs | Request tabs | Top 50 tabs