» » »

Aerosmith, Walk This Way Run Dmc Tabs (ver.1)

Artists:  A B C D E F G H I J K L M N O P Q R S T U V W X Y Z # 

Walk This Way Run Dmc Tabs (ver.1)

Aerosmith Tabs
 Rating:
4/5 (4 votes)
Walk This Way Run Dmc lessons Tabs too difficult? Try these video lessons and learn fast
                Aerosmith - walk this way(run dmc version)


<2> pinch harmonic - personally i love pinchs so i tend to put them everywhere lol
it sound good wif it though
                                         
e)-------------------------------------------------------------
b)-------------------------------------------------------------
g)-------------------------------------------------------------
d)-------2-------2----------2-------2----<2>-------------------
a)-0-1-2---0-1-2------0-1-2---0-1-2----------------------------
e)-----------------0------------------3------------------------


e)-------------------------------------------------------------
b)-------------------------------------------------------------
g)-------------------------------------------------------------
d)-----9-------------------------------------------------------
a)---9---9-11-9--9-12-9-11-11-9--------------------------------
e)-7-----------------------------------------------------------


e)-------------------------------------------------------------
b)-------------------------------------------------------------
g)-------------------------------------------------------------
d)-----9-------------------------------------------------------
a)---9---9-9-11-9--9-12-9-11-11-9-//0--------------------------
e)-7-----------------------------------------------------------

the last time you slide from the nine and do the intro again
            
Submit corrections

comments powered by Disqus
↑ Back to top | Aerosmith Tabs for Walk This Way Run Dmc. Lyrics for acoustic guitar and electric guitar. Tablatures and chords are parodies/interpretations of the original songs. You may use it for private study, scholarship, research or language learning purposes only