» » »

Walk This Way Tabs (ver.10)

Artists:  A B C D E F G H I J K L M N O P Q R S T U V W X Y Z # 

Walk This Way Tabs (ver.10)

Aerosmith
Rating:
0/5 (0 votes)

Hard to play? Try these video lessons and learn fast.
                                              "WALK THIS WAY"
                     AEROSMITH (ALBUM TOYS IN THE ATTIC)

Intro
e--------------------------------------------------------------|
b--------------------------------------------------------------|
g--------------------------------------------------------------|
d-------2------2---------------2------2---------2--------------|
a-0-1-2---0-1-2-----------0-1-2--0-1-2-------------------------|
e-----------------0-----------------------3p0------------------|

e--------------------------------------------------------------|
b--------------------------------------------------------------|
g--------------------------------------------------2-----------|
d-------2------2---------------2------2------------2-----------|
a-0-1-2---0-1-2-----------0-1-2--0-1-2-------------0-----------|
------------------0--------------------------------------------|


Verse                                     repeat 8 times?
e----------------------------------------------------------------|
b-------------------------------------------------------------o--|
g----------------------------------------------------------------|
d----------------------------------------10----------------------|
a---------10---10-12-10---------------------10-10-13-10-12-10-o--|
e--8-8-8-------------------------------8-------------------------|
  PM|------------------------------------------------------------|

Chorus(both guitars)                     repeat 8 times?
e--------------------------------------------------------------|
b----------------10--10-10~----------------------10--10-10~---o|
g----------------8---8--8------------------------8---8--8------|
d-------------------------------10--12--13---------------------|
a-10--12--13--------------------8---8---8---------------------o|
e-8---8---8----------------------------------------------------|


First solo (c pentatonic?) rythm guitar plays verse throughout solo
e-11b(12)--------8p11h8-------8--------8-------------------------------|
b---------------------------11----11b(13)--11-8------------------------|
g----------------------------------------------11p10p8-10-10-10b(12)8~-|
d--------------------------------------------------------10------------|
a----------------------------------------------------------------------|
e----------------------------------------------------------------------|

e---------------------------------------------------------------------|
b---10b(11)--8---8----------------------------------11b(13)-----------|
g--------------10-11p10p8-10p8-10p8-11p10p8-10p8----------------------|
d-10----------------------------------------------------------7~------|
a---------------------------------------------------------------------|
e---------------------------------------------------------------------|


Second solo(c again?) rythm plays verse throughout solo
e---------------------------------------------------------------------|
b----------10-----------------------------------8-5----5--------------|
g------9p8-----8\7\5-7p5-7p5-7-7b(8)r/p5----------5-------------------|
d10-10------------------------------------7/8-------8-----5-7-7b(8)r--|
a---------------------------------------------------------------------|
e---------------------------------------------------------------------|

e-----------------------------------------------------------8---------|
b--------------------------8p5--5-------------------------------------|
g---------5-8p5--8p5---5-8----8---8p7p5-7-7b(8)r/p5-7b(8)-5-----------|
d-----7/8-------8----8------------------------------------------------|
a-3-3------------------------------------------------------------0----|
e---------------------------------------------------------------------|


final solo (e pentatonic?) rythm guitar plays intro riff through solo
e---------------------------------------------------------------------|
b---------------------------------------------------------------------|
g-------2b(4)r---------4b(6)r(4)b(7)~-------2b(4)~---4b(6)r(4)b(7)~---|
d---------------------------------------------------------------------|
a---------------------------------------------------------------------|
e---------------------------------------------------------------------|

e---------------------------------------------------------------------|
b---------------------------------------------------------------------|
g------14b(16)~----16b(18)r(16)b(19)~----12r(9)(12)\-16b(18)r(16)b19)-|
d---------------------------------------------------------------------|
a---------------------------------------------------------------------|
e---------------------------------------------------------------------|
                                       (w/bar)

e-12------------------------------------------------------------------|
b----15p12----15b(17)r/p12---15b(17)----15b(17)r/p12------------------|
g--------------------------15-----------------------15p14p12-14b(15)r-|
d---------------------------------------------------------------------|
a---------------------------------------------------------------------|
e---------------------------------------------------------------------|

e-----------------12-16--------12----------13-----------------------------|
b------14-------12-----15b(17)~--15p12-------15p14p12------12-------------|
g-12---14--12h14----------------------12h13----------14b(16)-14b(16)r/p12-|
d---14-14-----------------------------------------------------------------|
a-------------------------------------------------------------------------|
e-------------------------------------------------------------------------|

e---------------------12-15b(17)---15b(17)-15~--12-------14--17-17-17b(18-|
b----------14--------------------------------------15/17------------------|
g---14--12-14---12h14-----------------------------------------------------|
d-14--14---14-------------------------------------------------------------|
a-------------------------------------------------------------------------|
e-------------------------------------------------------------------------|

e-17b(19)r/p15-15b(17)~r\-----12--------------------------------------|
b-------------------------------15p12---------------------------------|
g-------------------------/13--------15p14p12-14b(16)r/p12--12--------|
d---------------------------------------------------------14--14p12---|
a---------------------------------------------------------------------|
e---------------------------------------------------------------------|

e---------------------------------------------------------------------|
b---------------------------------------------------------------------|
g-----------------------------------12b(14)r(12)\--2b(4)r/p0----------|
d------------------------------------------------------------2--------|
a-14-13-12-11h12p11--12--11-12p11-------------------------------------|
e------------------12--12--------12-----------------------------------|

e----------------------------------------------------0------0---------|
b-------------------------------------------------/3--0-3/5---0-3p0-0-|
g-2-2b(4)r/p0-------2b(4)r/p0--0-2--2b(4)r/p0--2----------------------|
d-------------2--2-----------2-----------------2----------------------|
a----------------------------------------------0----------------------|
e---------------------------------------------------------------------|

e-------------------------0-------------------------------------------|
b-3b(4)---0-3p0-0-3b(4)p0-0-3p0-0-3b(5)r/p0p--------------------------|
g-------------------------------------------2p0-2--2b(4)r/p0----------|
d-----------------------------------------------2-------------2-------|
a-----------------------------------------------0---------------------|
e---------------------------------------------------------------------|

e---------------------------------------------------------------------|
b--------------------------------------------------------12-----12----|
g-2b(4)r/p0-------------------------------------2--2/------12----12---|
d-----------2-2~---0h2p0-----------------2p0-2--2---------------------|
a------------------------2\1p0------------------0---------------------|
e------------------------------3b(4)-0--------------------------------|

e----------------------------------------------------------------------|
b-12---12----12---12---15b(17)-15b(17)~-12-------12--15b(17)r-12-------|
g---12---12----12--12---------------------14b(16)--12-----------14b(16-|
d----------------------------------------------------------------------|
a----------------------------------------------------------------------|
e----------------------------------------------------------------------|
 fade out|-------------------------------------------------------------|


Thats it i guess. I have no lyrics sorry. I was just too lazy to write them.
            
Hard to play? Try these video lessons and learn fast. | Correct




comments powered by Disqus
↑ Back to top | Tablatures and chords are parodies/interpretations of the original songs. You may use it for private study, scholarship, research or language learning purposes only