» » »

Train Kept Rollin Tabs (ver.6)

Artists:  A B C D E F G H I J K L M N O P Q R S T U V W X Y Z # 

Train Kept Rollin Tabs (ver.6)

Aerosmith
Rating:
0/5 (0 votes)

Hard to play? Try these video lessons and learn fast.
                (Intro)
#---------------------------------YOU BEST NOTE-------------------------------#
#---------------------------------YOU BEST NOTE-------------------------------#

Train Kept a Rollin'

Aerosmith



Intro :

 2x           rake---\
e----------------0-------|
b---15-----(15)---0------|
g---14b16--(16)----9-----|
d-------------------9--/-|
a--------------------7-/-|
e------------------------|

e---------------12-----------|----------------------15-17-|
b--15-----15-------15--12----|------------------s17-------|
g--14b16=r14vvv-----------15-|-14--12h14p12vvv------------|
d----------------------------|----------------------------|
a----------------------------|----------------------------|
e----------------------------|----------------------------|

e--15-17b19r17p15-17vv--15-17|p15---------12-15p12h15-----|
b----------------------------|----17-17vv-------------15--|
g----------------------------|----------------------------|
d----------------------------|----------------------------|
a----------------------------|----------------------------|
e----------------------------|----------------------------|

e-----------------------------|----------------------------|
b--12h15p12-------------------|----------------------------|
g-----------14-14-13-14p12----|---------------------14b16--|
d--------------------------14-|-\12-14p12h14----12---------|
a-----------------------------|--------------14------------|
e-----------------------------|----------------------------|

e-----12----------------------|---------12----------------|
b--12----12--14b16r15vvv-12h15|p12---------12tr15---------|
g-----------------------------|---14p12-----------12tr15--|
d-----------------------------|---------------------------|
a-----------------------------|---------------------------|
e-----------------------------|---------------------------|

e----------------------------|
b----------------------------|
g----------------------------|
d--12tr14--12tr14-\\---------|
a----------------------------|
e----------------------------|
            
Hard to play? Try these video lessons and learn fast. | Correct




comments powered by Disqus
↑ Back to top | Tablatures and chords are parodies/interpretations of the original songs. You may use it for private study, scholarship, research or language learning purposes only