» » »

Aerosmith, Train Kept Rollin Bass tabs (ver.1)

Artists:  A B C D E F G H I J K L M N O P Q R S T U V W X Y Z # 

Train Kept Rollin Bass tabs (ver.1)

Aerosmith Tabs
Rating:
0/5 (0 votes)
Train Kept Rollin lessons Tabs too difficult? Try these video lessons and learn fast
                Train Kept A Rollin' - Aerosmith

This song sounds cool to me and it's different enough 

  verse
     x2      
G|-------------|-------------|-------------|------------|-------------|
D|-------------|-------------|-------------|------------|-------------|
A|-------------|-------------|-------------|------------|-------------|
E|3--003-3-03--|5--225-5-25--|3--003-3-03--|5--7--5-3-2-|3--003-3-03--|

  solo
G|----------------------------------------|--------------------------------------------|
D|----------------------------------------|-----------5-75-------------------5-75------|
A|7----5-75-------------------5-75--------|023--00--57-7--753200--023--00--57-7--753200|
E|---57-7--753200--023--00--57-7--753200--|--------------------------------------------|

|----------------------------------------------|-------------------------|
|----------------------------------------------|-------------------------|
|-----------5-75-------------------5-75--------|------------6-7-8-9-10\--|
|023--00--57-7--753200--023--00--57-7--753200--|7--7-8-9-10--------------|

End the second verse with an E note.  Then there is some drum rolling and more train noises.

Last verses:
      x2
G|----------------|----------------|----------------|---------------|----------------|
D|5--5--5-5-5--5--|7--7--7-7-7--7--|5--5--5-5-5--5--|7-7-7-9--7-5-4-|5--5--5-5-5--5--|
A|--7-77------7---|--9-99------9---|--7-77------7---|---------------|--7-77------7---|
E|----------------|----------------|----------------|---------------|----------------|

when the drum roll starts up again, play:
        x7
G|---|-----|---------|
D|---|-45--|99-9-9--9|
A|7--|7----|---------|
E|---|-----|---------|

outro (sounds cool this way):
              x4       x3
G|---------|9-------|--------|-----------|
D|---------|--------|5-------|--5-7------|
A|----7----|---77---|--------|7-----7----|
E|---------|-07--70-|--333333|-----------|
            
Submit corrections

comments powered by Disqus
↑ Back to top | Aerosmith Bass for Train Kept Rollin. Lyrics for acoustic guitar and electric guitar. Tablatures and chords are parodies/interpretations of the original songs. You may use it for private study, scholarship, research or language learning purposes only