>
 >
Train Kept A Rollin'

Train Kept A Rollin' Guitar Tabs

Aerosmith - Train Kept A Rollin' chords, tabs, tablatures, lyrics

Guitar lessons | Add/correct | Request | Top 50 tabs Artists:  A B C D E F G H I J K L M N O P Q R S T U V W X Y Z 0-9

Train Kept A Rollin' Guitar Tabs – Aerosmith

CD, Sheet music, Poster

Do you like Train Kept A Rollin'? Share with your friends now
TabsTabs v2
PROPS GO TO: Umang Mittal

TRAIN KEPT A ROLLING
			     as performed by Aerosmith
                             -------------------------


This song definitely contains one of the most complicated solos. I haven't tabbed it out perfectly, cause I ain't no Joe 'fuckin' Perry, but if you're attemping to play this song, I'm sure you must have developed skills sufficient enogh to improvise a bit. Based on the original Get your wings version.

h - hammer on
p - pull of
/ - slide
x - mute the guitar with right hand


       Train Whistle         Intro Solo Starts (Riff 1 starts)
E------------------------||--------------------------------------|
B-----10b~~----10p9p8----||--15b16~~p15~----12-15-12-11----------|
G---------------------9--||-----------------------------14-12----|
D------------------------||-----------------------------------14-|
A-----Played twice-------||--------------------------------------|
E------------------------||--------------------------------------|


E---------15-17-15-19-17-15-17----17p15-17p15-----------15-17-15----15------------
B---15/17-------------------------------------15-15~-------------17----17-15-17-15
G---------------------------------------------------------------------------------
D---------------------------------------------------------------------------------
A---------------------------------------------------------------------------------
E---------------------------------------------------------------------------------


E-----------------------------------||-----------------------------------------------------
B-----15----------------------------||-------------------------------15--------------------
G--16----16-14-16-14----14----------||--------12-17-15-12-15b17---16----16-15-14--12-14-12-
D--------------------17----17-14-14-||--12/14----------------------------------------------
A-----------------------------------||-----------------------------------------------------
E-----------------------------------||-----------------------------------------------------


E---------------------------
B---------------------------
G---------------------------
D--14p12h14p12---fades out--  End of Intro Solo
A---------------------------
E---------------------------


RIFF 1; as it is on the original version (played almost throughout the song)

E------------------|-------|------------------|---------------|
B------------------|-------|------------------|---------------|
G------------------|-Play--|------------------|---------------|
D-5x--5-5-5-5-5---5|-Twice-|-7x--7-7-7-7-7--7\|-5x--5-5-5-5-5\|
A-5x--5-5-5-5-5---5|-------|-7x--7-7-7-7-7--7\|-5x--5-5-5-5-5\|
E-3x--0-3-3-0-3---0|-------|-5x--0-5-5-0-5--0\|-3x--0-3-3-0-3\|
                                                   
 
E----------------|-------------|
B----------------|-------------|
G----------------|-Repeat-from-|
D-7~---7-9-7-5-4-|----Start----|
A-7~---7-9-7-5-4-|-------------|
E-5~---5-7-5-3-2-|-------------|
 
                                                
           Interlude 1:   6 Times
e:-------|--------------------------------------------|
B:-------|--------------------------------------------|
G:-------|--------------------------------------------|
D:-2-----|----------5-------------2-2------------2-2--|
A:-2-----|-----5-----^7^5---------2-2------------2-2--|
E:-0~~~--|-5^7--^7-------^7^5\3~--0-0--0--2--3~~-0-0--|
                                  . .            . .
 
 
    E  A  B  Chord Progression
e:-----5--7-------------------------------|---------|
B:-----5--7-------------------------------|-Back-to-|
G:-----6--8-------------------------------|-Riff-1--|
D:-----7--9-------------------------------|--Over---|
A:-----7--9-------------------------------|--Solo---|
E:--0--5\-7--7-8-9-10~~-10-11-12-13-15~~~-|---------|



Solo at 00:52  (about 70% correct!)

E-----------------------------------------------------|--------------------------
B--15b17--14b15--13b14--12----------------------------|--12----------------------
G-----------------------------14--12------------------|-----14-12-14-12----12-14-
D------------------------------------14p12h14p12h14---|-----------------14-------
A-----------------------------------------------------|--------------------------
E-----------------------------------------------------|--------------------------



E--------------------17~-15-12-15
B-12---12-17-15-17~---------------
G---------------------------------
D--------------------------------- Too lazy (and not skilled enough) to do the rest
A--------------------------------- Good Luck!
E---------------------------------





Comments


Popular Aerosmith tabs & chords
Big Ten-inch Record Bass Tabs
Mama Kin Bass Tabs
Same Old Song And Dance 2 Bass Tabs
Attitude Adjustment Chords
Avant Garden Chords
Dream On Drum Tabs
Beyond Beautiful Tabs
No Surprize 1 Tabs
Shut Up And Dance 1 Tabs
Shut Up And Dance Intro Tabs


Song lyrics



↑ Back to top | Tablatures and chords are parodies/interpretations of the original songs. You may use it for private study, scholarship, research or language learning purposes only
© 2014 AZChords.com Contact us | Privacy policy | DMCA | Add/correct tabs | Request tabs | Top 50 tabs