>
 >
Sweet Emotion 6

Sweet Emotion 6 Guitar Tabs

Aerosmith - Sweet Emotion 6 chords, tabs, tablatures, lyrics

Guitar lessons | Add/correct | Request | Top 50 tabs Artists:  A B C D E F G H I J K L M N O P Q R S T U V W X Y Z 0-9

Sweet Emotion 6 Guitar Tabs – Aerosmith

CD, Sheet music, Poster

Do you like Sweet Emotion 6? Share with your friends now
Bass TabsDrum TabsTabsTabs v2Tabs v3Tabs v4Tabs v5Tabs v6Tabs v7
aerosmith

sweet emotion

one of the best chill songs ever. enjoy.



Intro
  
 4/4
  Gtr I with Talk Box
  W          +W           H    +S  E. Q    H    +E. S +Q     Q  H.
|----------|------------|----------------|-----------------|----------|
|----------|------------|----------3--3--|-3----(3)--------|----------|
|----------|------------|----------------|-----------------|----------|
|----------|------------|-4----(4)-4--4--|-4----(4)-4-(4)--|-7--7-----|
|-0--------|-(0)--------|----------------|-----------------|-0--0-----|
|----------|------------|----------------|-----------------|----------|


   H..       E   E E  Q   +S   E. +Q
|--------------|-----------------------|
|--------------|------5---(5)--3--(3)--|
|--------------|------2---(2)--2--(2)--|
|--------------|---------------4--(4)--|
|-[0]--------0-|-0-0-(0)--(0)-(0)-(0)--|
|--------------|-----------------------|


  +E  Q.   +Q.   E   Q.   E  +Q.   E   +W
|------------------|-----------------|--------|
|-(3)-3----(3)-----|-----------------|--------|
|-(2)-2----(2)-----|-----------------|--------|
|-(4)-4----(4)---4-|-4p===2--(2)-----|--------|
|-(0)--------------|-0---(0)-(0)---0-|-(0)----|
|------------------|-----------------|--------|


  H    +E. S Q    +S  S Q.   +Q..  S   H.      Q       +W
|---------------|--------------------|---------------|-----------||
|-3----(3)---3--|-(3)----------------|-3-------2tr3--|-(2tr3)----||
|-2----(2)---2--|-(2)----------------|-2-------------|-----------||
|-4----(4)p2-4--|-(4)p2-4----(4)p==2-|-4-------------|-----------||
|---------------|--------------------|-0-------------|-----------||
|---------------|--------------------|---------------|-----------||


    W          W          W          W
||-----------|----------|----------|-----------------||
||o----------|----------|----------|----------------o||
||-----------|----------|----------|-----------------||
||-----------|----------|----------|-----------------||
||o----------|----------|----------|-----------0-4--o||
||-----------|----------|----------|-----------------||
                                     H    Q  E S S
                                     notes play by Gtr II 2nd time only

 Verse 1
  Gtr II
  A5
  W                        +W
  |                         |
  /                         /

  E E +S  E. S S E E E      E E S E. S S E E E  7x
|----------------------||---2-------------------||
|----------------------||o--3-2----------------o||
|---2-(2)-2------------||---2-2---2-------------||
|---2-(2)-2------------||---0-2---2-------------||
|---0-(0)-0--3p0---0---||o----0---0--3p0---0---o||
|----------------3---3-||----------------3---3--||
|-Riff A             --||-Riff A1             --|


  Gtrs I (top numbers), II(lower numbers)
  S S E S E S S E S S S E   S S E S E S S E S S S E   S S E S E.   S E S S S E
|-------------------------|-------------------------|--------------------------|
|-------------------------|-------------------------|--------------------------|
|-------------------------|-------------------------|-2p0----------------------|
|-------------------------|-------------------------|-----2--------------1-1-2-|
|-5p3---------------------|-5p3---------------------|-5p3---2-4----5-5-5-------|
|-----5-0-2-2-3-3-3-4-4-5-|-----5-0-2-2-3-3-3-4-4-5-|-----5-0-2--2-3-3-3-4-4-5-|
|-Riff B                --|                           S S E S E  S S E S S S E
                                                    |-Riff C                 --|

  S S E S E. E. S +E  E
|-----------------------||
|-----------------------||
|-2p0-------------------||
|-----2---------1-(1)-2-||
|-5p3---2-4--5--------0-||
|-----5-0-2--3--4-(4)---||
  S S E S E. E. S +E  E 
|-Riff D              --|

Riff A1 x8
Riff B x4
Riff C x3
Riff D


 Chorus
                                   C#                  D
  Gtr II
  W                                H.                  Q
                                   |                   |
                                   o                   o

  Gtr I
  S S E S S S S S E. S S S S       S  S E S S S S S E. S S S S    7x
|------------------------------||---------------------------------||
|------------------------------||o-------------------------------o||
|-------------2---2------------||---------------2---2-------------||
|-0-----5p0---2---2------------||--2------5p0---2---2-------------||
|---3p0-----3--------5p0-0-3b4-||o-0--3p0-----3--------5p0-0-3b4-o||
|------------------------------||---------------------------------||


 Verse 3
Riff A
Riff A1 x7
Riff B x2
Riff C

  S S E S E. E. S +E  E 
|-----------------------|
|-----------------------|
|-2p0-------------------|
|-----2---------1-(1)-2-|
|-5p3---2-4--5--------0-|
|-----5-0-2--3--4-(4)---|
  S S E S E. E. S +E  E

Verse 4
Riff A1 x8
Riff B x4
Riff C x3



 2/4          4/4
  S S E Q      +Q   +H.
|------------|------------------|
|------------|------------------|
|-2p0--------|------------------|
|-----2------|------------------|
|-5p3--------|------------------|
|-----5-0-2--|-(2)--(2)b5=======|
  S S E S E.


                     Outro
  +H      +H          E E E S S S E. s S S S   4x
|-----------------||---------------------------||
|-----------------||o-------------------------o||
|-----------------||---------------------------||
|-----------------||---------------------------||
|-----------------||o-2-2-5---7---7-----------o||
|-(5)----([5])----||--0-0---0--------5-5-3s4---||
                   |-Riff E                  --|

 Outro - Solo with Riff E to fade
  Gtr I
   S  S S  S  S S  S  S S  S  S S  S  S  S  S
|-15s16---15s16---15s16---15s16-x-15-16-16-16-|
|-14s15---14s15---14s15---14s15-x-14-15-15-15-|
|---------------------------------------------|
|---------------------------------------------|
|---------------------------------------------|
|---------------------------------------------|


   Q    E.   S   +S  S  Q     E
|-16\-----------------------------|
|-15\-------------------0---------|
|------------2b3-(3)-0------------|
|---------------------------------|
|---------------------------------|
|---------------------------------|


  S  S  S  S  S  S S  S  S S   S  S S  S  S  S
|------------15s16---15s16----15s16---15-16-16-|
|---14-------14s15---14s15----14s15---14-15-15-|
|------13--------------------------------------|
|---------14-----------------------------------|
|----------------------------------------------|
|----------------------------------------------|


                       |---3----|
   S  S  E  S  E.      S  S     S  S  S  E    S  S
|-16-16-16-12---------------------12------------12-|
|-15-15-------15------15-12------------------12----|
|------------------------------14----14-14---------|
|--------------------------------------------------|
|--------------------------------------------------|
|--------------------------------------------------|


   S  S     S  S  S  T     T  E       S  T   T  E  +S   S  S     +S
|--------------------------------------------------------------------|
|-15-------12----15-------12---------12------------------------------|
|----14b15----12----14b16----14b15------12-----14-(14)-12-14b16-(16)-|
|-------------------------------------------14-----------------------|
|--------------------------------------------------------------------|
|--------------------------------------------------------------------|


                                        |------3------|
   S  S     S  S  Q         E     S  S  S      +S     S  S  S
|----------------15b17-----15----12-------------------------------|
|-15-------12-----------------------12----------------------------|
|----14b15----12-----------------------14pb16r(14)p==12-14-14b16--|
|-----------------------------------------------------------------|
|-----------------------------------------------------------------|
|-----------------------------------------------------------------|


   S  S  S  S  a  E  S  S  S  S   S  S  S  S  S  S
|--------------------------------------------------|
|-------14-----------------------12----------12-12-|
|-12----14----12h13----12h13--------12-14p12-12-12-|
|----14----14-------14-------14--------------------|
|--------------------------------------------------|
|--------------------------------------------------|


      ~~~~~
   S  E.      S  S  S  S  +S   S   E  E    E
|------------------12---------------------------|
|-12-15b17---12-------14-(14)-12--14-14---14----|
|-12------------14----14-(14)-12--14-14---14----|
|---------------------14-(14)-12--14-14---14----|
|-----------------------------------------------|
|-----------------------------------------------|


    |-3-|
  E S S S S E.       Q    E   S S
|-----------0--------0----0-------|
|-----------------------------0-0-|
|---3p2p0-------------------------|
|---------2-0tr2-----2------------|
|---------------------------------|
|-0-------------------------------|


                  |--3--|
  S S S S   +S  S S S   S S    +S  +S  S +E    S S
|-----0-2b4r(2)p0------------------------------------|
|-0-3-------------3p2p==0-2b3==(3)r(2)p0-(0)---------|
|----------------------------------------------0h1/--|
|----------------------------------------------------|
|----------------------------------------------------|
|----------------------------------------------------|

                                ~
                                          |---3---|
  S  E   S S  S  S S  S     +S  E +S   S  S  S    S
|---12-----9----------------------------------------|
|--------9------------------------------------------|
|------------12s11p9-11b13-(13)-9-(9)------------14-|
|-------------------------------------11-12s14------|
|---------------------------------------------------|
|---------------------------------------------------|


                              ~~~~~
   S  S  S  S  S  S  S  S  S  E.    S  E.
|----------------14p12----12-------12---------|
|-------14p12----------14----15b17----15\-----|
|-12h14-------12------------------------------|
|---------------------------------------------|
|---------------------------------------------|
|---------------------------------------------|


   ~~~~~~
               |----3-----|                     |----3-----|
   Q.         +S   +S     S  S  E.      +E     +S   +S     S
|------------------------------------------------------------|
|-15b17======(17)r(15)p==12-14-14pb15==(15)---(15)r(14)p==12-|
|------------------------------------------------------------|
|------------------------------------------------------------|
|------------------------------------------------------------|
|------------------------------------------------------------|


                ~~~                 ~~~~~~~
   S  E    S S  E.      E     a  S  S  +Q
|-------------------------------------------------|
|----12-------------------------------------------|
|-14------12---11---------------------------------|
|----------------------14----12h14p12-(12)--------|
|-------------------------------------------------|
|-------------------------------------------------|


   ~~~~~~
               |----3-----|                     |----3-----|
   Q.         +S   +S     S  S  E.      +E     +S   +S     S
|------------------------------------------------------------|
|-15b17======(17)r(15)p==12-14-14pb15==(15)---(15)r(14)p==12-|
|------------------------------------------------------------|
|------------------------------------------------------------|
|------------------------------------------------------------|
|------------------------------------------------------------|


   S  S S  E.       S  S  +E      Q         +E
|----12--------------------------15b17r====(15)--|
|------------------------------------------------|
|-14------12tr13---------------------------------|
|------------------14-12-(12)--------------------|
|------------------------------------------------|
|------------------------------------------------|

   ~~~~~~
               |----3-----|                     |----3-----|
   Q.         +S   +S     S  S  E.      +E     +S   +S     S
|------------------------------------------------------------|
|-15b17======(17)r(15)p==12-14-14pb15==(15)---(15)r(14)p==12-|
|------------------------------------------------------------|
|------------------------------------------------------------|
|------------------------------------------------------------|
|------------------------------------------------------------|


   S  E    E.       S  S S  E     S  S  S  E
|----------------------------------------------|
|----12------------12-15---------12------------|
|-14------12tr13-----------14b16----14p12------|
|-----------------------------------------14---|
|----------------------------------------------|
|----------------------------------------------|


   ~~~~~~
               |----3-----|                     |----3-----|
   Q.         +S   +S     S  S  E.      +E     +S   +S     S
|------------------------------------------------------------|
|-15b17======(17)r(15)p==12-14-14pb15==(15)---(15)r(14)p==12-|
|------------------------------------------------------------|
|------------------------------------------------------------|
|------------------------------------------------------------|
|------------------------------------------------------------|


                       ~~~~~~~
   S  E    E.       S  S  +Q      E    S  S
|-------------------------------------------*|
|----12-------------------------------------*|
|-14------12tr13----------------------------*|
|------------------14-12-(12)----12---12-12-*|
|-------------------------------------------*|
|-------------------------------------------*|





Comments


Popular Aerosmith tabs & chords
Movin Out Bass Tabs
Fly Away From Me Chords
I Dont Want To Miss A Thing 4 Chords
Adam's Apple Tabs
Girls Of Summer 1 Tabs
Livin On The Edge Tabs
Shame On You Tabs
Subway Tabs
The Grind 1 Tabs
What Could Have Been Love Ukulele


Song lyrics



↑ Back to top | Tablatures and chords are parodies/interpretations of the original songs. You may use it for private study, scholarship, research or language learning purposes only
© 2014 AZChords.com Contact us | Privacy policy | DMCA | Add/correct tabs | Request tabs | Top 50 tabs