» » »

Sweet Emotion Tabs (ver.5)

Artists:  A B C D E F G H I J K L M N O P Q R S T U V W X Y Z # 

Sweet Emotion Tabs (ver.5)

Aerosmith
Rating:
0/5 (0 votes)

Hard to play? Try these video lessons and learn fast.
                ---------------------- Aerosmith "Sweet Emotion" ---------------------------


Moderate rock = 96

E||-----------------------2----------------------||
B||-----------------------3--2-------------------||
G||-2--2------------------2--2-2-----------------||
D||-2--2------------------0--2-2-----------------||
A||-0--0--3p0---0------------0-0--3p0---0--------||
E||-----------3---3-------------------3--3-------||

E||-2--------------------|-2----------------------||
B||-3-2------------------|-3-2--------------------||
G||-2-2-2----------------|-2-2-2------------------||
D||-0-2-2----------------|-0-2-2------------------||
A||---0-0--3p0---0-------|---0-0--3p0---0---------||
E||------------3----3----|------------3---3-------||

E||-2--------------------|-2----------------------||
B||-3-2------------------|-3-2--------------------||
G||-2-2-2----------------|-2-2-2------------------||
D||-0-2-2----------------|-0-2-2------------------||
A||---0-0--3p0---0-------|---0-0--3p0---0---------||
E||------------3----3----|------------3---3-------||

E||-2--------------------|-2----------------------||
B||-3-2------------------|-3-2--------------------||
G||-2-2-2----------------|-2-2-2------------------||
D||-0-2-2----------------|-0-2-2------------------||
A||---0-0--3p0---0-------|---0-0--3p0---0---------||
E||------------3----3----|------------3---3-------||

(Guitars 1&2)
E||----------------------------||---------------------------------||
B||----------------------------||---------------------------------||
G||----------------------------||---------------------------------||
D||----------------------------||---------------------------------||
A||-5p3------------------------||--5p3----------------------------||
E||-----5--0-2--2-3-3--3-4-4-5-||------5--0-2--2-3-3--3-4-4--5----||

(Guitar 2)
E||-------------------------||----------------------||
B||-------------------------||----------------------||
G||-2p0---------------------||-2p0------------------||
D||----2--------------1-1-2-||-----2--------1--2----||
A||------2-4--4-5-5--5------||-------2-4--5---------||
E||-------------------------||----------------------||

(Guitar 1)

E||------------------------------||-----------------------||
B||------------------------------||-----------------------||
G||------------------------------||-----------------------||
D||------------------------------||-----------------------||
A||--5p3-------------------------||-5p3-------------------||
E||------5--0-2--2-3-3--3-4-4-5--||-----5--0-2--3--4--5---||

Verse

E||-2--------------------||-2------------------------||
B||-3-2------------------||-3-2----------------------||
G||-2-2-2----------------||-2-2-2--------------------||
D||-0-2-2----------------||-0-2-2--------------------||
A||---0-0---3p0----0-----||---0-0---3p0-----0--------||
E||--------------3---3---||--------------3----3------||

E||-2--------------------||-2------------------------||
B||-3-2------------------||-3-2----------------------||
G||-2-2-2----------------||-2-2-2--------------------||
D||-0-2-2----------------||-0-2-2--------------------||
A||---0-0---3p0----0-----||---0-0---3p0-----0--------||
E||--------------3---3---||--------------3----3------||

E||-2--------------------||-2------------------------||
B||-3-2------------------||-3-2----------------------||
G||-2-2-2----------------||-2-2-2--------------------||
D||-0-2-2----------------||-0-2-2--------------------||
A||---0-0---3p0----0-----||---0-0---3p0-----0--------||
E||--------------3---3---||--------------3----3------||

E||-2--------------------||-2------------------------||
B||-3-2------------------||-3-2----------------------||
G||-2-2-2----------------||-2-2-2--------------------||
D||-0-2-2----------------||-0-2-2--------------------||
A||---0-0---3p0----0-----||---0-0---3p0-----0--------||
E||--------------3---3---||--------------3----3------||

E||-2--------------------||-2------------------------||
B||-3-2------------------||-3-2----------------------||
G||-2-2-2----------------||-2-2-2--------------------||
D||-0-2-2----------------||-0-2-2--------------------||
A||---0-0---3p0----0-----||---0-0---3p0-----0--------||
E||--------------3---3---||--------------3----3------||

E||-2--------------------||-2------------------------||
B||-3-2------------------||-3-2----------------------||
G||-2-2-2----------------||-2-2-2--------------------||
D||-0-2-2----------------||-0-2-2--------------------||
A||---0-0---3p0----0-----||---0-0---3p0-----0--------||
E||--------------3---3---||--------------3----3------||

E||-2--------------------||-2------------------------||
B||-3-2------------------||-3-2----------------------||
G||-2-2-2----------------||-2-2-2--------------------||
D||-0-2-2----------------||-0-2-2--------------------||
A||---0-0---3p0----0-----||---0-0---3p0-----0--------||
E||--------------3---3---||--------------3----3------||

E||-2--------------------||-2------------------------||
B||-3-2------------------||-3-2----------------------||
G||-2-2-2----------------||-2-2-2--------------------||
D||-0-2-2----------------||-0-2-2--------------------||
A||---0-0---3p0----0-----||---0-0---3p0-----0--------||
E||--------------3---3---||--------------3----3------||

E||------------------------------||-----------------------||
B||------------------------------||-----------------------||
G||------------------------------||-----------------------||
D||------------------------------||-----------------------||
A||--5p3-------------------------||-5p3-------------------||
E||------5--0-2--2-3-3--3-4-4-5--||-----5--0-2--3--4--5---||

(Guitar 2)
E||-------------------------||----------------------||
B||-------------------------||----------------------||
G||-2p0---------------------||-2p0------------------||
D||----2--------------1-1-2-||-----2--------1--2----||
A||------2-4--4-5-5--5------||-------2-4--5---------||
E||-------------------------||----------------------||

E||------------------------------||-----------------------||
B||------------------------------||-----------------------||
G||------------------------------||-----------------------||
D||------------------------------||-----------------------||
A||--5p3-------------------------||-5p3-------------------||
E||------5--0-2--2-3-3--3-4-4-5--||-----5--0-2--3--4--5---||

Chorus

E||------------------------------||-----------------------------||
B||------------------------------||-----------------------------||
G||-------0----2-2---------------||----0---2-2------------------||
D||-------0----2-2---------------||-2--0---2-2------------------||
A||-5-3p0----0------5p0--0LP3-4--||-0----0------5p0--0LP3-4-----||
E||------------------------------||-----------------------------||

E||-----------------------------||-------------------------------||
B||-----------------------------||-------------------------------||
G||----0---2-2------------------||----0---2-2--------------------||
D||-2--0---2-2------------------||-2--0---2-2--------------------||
A||-0----0------5p0--0LP3-4-----||-0----0------5p0--0LP3-4-------||
E||-----------------------------||-------------------------------||

E||-----------------------------||-------------------------------||
B||-----------------------------||-------------------------------||
G||----0---2-2------------------||----0---2-2--------------------||
D||-2--0---2-2------------------||-2--0---2-2--------------------||
A||-0----0------5p0--0LP3-4-----||-0----0------5p0--0LP3-4-------||
E||-----------------------------||-------------------------------||

E||-----------------------------||-------------------------------||
B||-----------------------------||-------------------------------||
G||----0---2-2------------------||----0---2-2--------------------||
D||-2--0---2-2------------------||-2--0---2-2--------------------||
A||-0----0------5p0--0LP3-4-----||-0----0------5p0--0LP3-4-------||
E||-----------------------------||-------------------------------||

E||-----------------------------||-------------------------------||
B||-----------------------------||-------------------------------||
G||----0---2-2------------------||----0---2-2--------------------||
D||-2--0---2-2------------------||-2--0---2-2--------------------||
A||-0----0------5p0--0LP3-4-----||-0----0------5p0--0LP3-4-------||
E||-----------------------------||-------------------------------||

E||-----------------------------||-------------------------------||
B||-----------------------------||-------------------------------||
G||----0---2-2------------------||----0---2-2--------------------||
D||-2--0---2-2------------------||-2--0---2-2--------------------||
A||-0----0------5p0--0LP3-4-----||-0----0------5p0--0LP3-4-------||
E||-----------------------------||-------------------------------||

Thats all of it. I got it straight from the tab book with a few minor adjustments.
So.. I hope you guys enjoy my tab and Good luck.
Comment and Rate
Laterr
            
Hard to play? Try these video lessons and learn fast. | Correct




comments powered by Disqus
↑ Back to top | Tablatures and chords are parodies/interpretations of the original songs. You may use it for private study, scholarship, research or language learning purposes only