» » »

Sweet Emotion Tabs (ver.3)

Artists:  A B C D E F G H I J K L M N O P Q R S T U V W X Y Z # 

Sweet Emotion Tabs (ver.3)

Aerosmith
Rating:
0/5 (0 votes)

Hard to play? Try these video lessons and learn fast.
                Ok, first off, the intro (background) is actually, I believe, played on a bass guitar
while the guitars are doing phasers, wahs, and other effects. However, the following
tab for guitar gives you the same thing.
Clean with reverb
e|-----------------------|-
B|-----------------------|-
G|-----------------------|-
D|-----5p0-7-------------|-
A|-0-0-------0-0-5p0-4p0-|-
E|-----------------------|-
(Repeat until the line "Talk about things that nobody cares")

Main riff (There are several different ways to play this, since Aerosmith has 2 guitar
players, but I find this to be the best)
Distorted
e|-----------------|-
B|-----------------|-
G|-7-6-----5-------|-
D|-7-7-7-7-5-7-5-7-|-
A|-----7-7---7-5-7-|-
E|-----------------|-

Pre-chorus
Distorted
e|-----------------|-
B|-----------------|-
G|-----------------|-
D|-----------------|-
A|-5p3-0-----------|-
E|-------0h2-3-4-5-|-

Those are the pieces minus the solo at the end which I believe is ad-lib, so I won't
attempt to transcribe it, just listen to the song to get the timing down for these
pieces and you'll be ready to go! Please rate my tab. Thanks.
            
Hard to play? Try these video lessons and learn fast. | Correct




comments powered by Disqus
↑ Back to top | Tablatures and chords are parodies/interpretations of the original songs. You may use it for private study, scholarship, research or language learning purposes only