» » »

Sunshine Bass tabs (ver.1)

Artists:  A B C D E F G H I J K L M N O P Q R S T U V W X Y Z # 

Sunshine Bass tabs (ver.1)

Aerosmith
Rating:
0/5 (0 votes)
Tabs too difficult? Try these video lessons and learn fast.
                
intro (2x)
G:|--------------------------------------|
D:|--------------------------------------|
A:|------2--5--------------2--5------2-4-|
E:|-2--2-------5-4-2--2--2------5--5-----|

verse#1 (2x)
G:|----------------------------------|
D:|----------------------------------|
A:|------2--5----------2--5------2-4-|
E:|-2--2-------5--2--2------5--5-----|

G:|-----------------------------------------|
D:|-----------------------------------------|
A:|------2--5-----5-------4--4-2--2---------|
E:|-2--2-------5-----5--5-----------5--5-4--|

chorus
G:|--------------------------------------|
D:|--------------------------------------|
A:|------5-5--2-2---------------5-5--4-2-|
E:|-2-2------------4-4--2-2/12-----------|

G:|----------------------------------------------|
D:|----------------------------------------------|
A:|------5-5--2-2---------------5-5--4-2---4-2-0-|
E:|-2-2------------4-4--2-2/12-------------------|

verse#2
G:|--------------------------------------|
D:|--------------------------------------|
A:|------2--5--------------2--5------2-4-|
E:|-2--2-------5-4-2--2--2------5--5-----|

G:|-----------------------------------------|
D:|-----------------------------------------|
A:|------2--5-----5-------4--4-2--2---------|
E:|-2--2-------5-----5--5-----------5--5-4--|

then chorus

solo 
G:|------------------|
D:|------------------|
A:|--4--4-2-------2--|
E:|----------5--5----| 3x	then...

G:|------------|
D:|------------|
A:|--4--2------|
E:|--------5~--|	

G:|--------------------------------------|
D:|--------------------------------------|
A:|------2--5--------------2--5------2-4-|
E:|-2--2-------5-4-2--2--2------5--5-----|

- verse#3 (play verse#2)
- chorus
            
Tabs too difficult? Try these video lessons and learn fast.


comments powered by Disqus
↑ Back to top | Tablatures and chords are parodies/interpretations of the original songs. You may use it for private study, scholarship, research or language learning purposes only