» » »

Aerosmith, Shame On You Tabs (ver.1)

Artists:  A B C D E F G H I J K L M N O P Q R S T U V W X Y Z # 

Shame On You Tabs (ver.1)

Aerosmith Tabs
 Rating:
4/5 (4 votes)
Shame On You lessons Tabs too difficult? Try these video lessons and learn fast
                ----------------------------------------------------------------------------
~~~~~~~~~~~~~~~~~~~~~~~Aerosmith - Shame On You tab~~~~~~~~~~~~~~~~~~~~~~~~~
----------------------------------------------------------------------------


Intro

Riff 1:
e|------------------|---------------|------------------|-PH----------------|
B|------------------|---------------|------------------|-------------------|
G|------------------|-------12~~~~~-|------------------|----------12~~~~~~-|
D|------7-----------|-12h14---------|------7-----------|-14-12h14----------|
A|--4h5---5p4-------|---------------|--4h5---5p4-------|-------------------|
E|------------5p0---|---------------|------------5p0---|-------------------|

e|------------------|---------------|------------------|-------------------|
B|------------------|---------------|------------------|-------------------|
G|------------------|-------12~~~~~-|------------------|----------12~~~~~~-|
D|------7-----------|-12h14---------|------7-----------|-14-12h14----------|
A|--4h5---5p4-------|---------------|--4h5---5p4-------|-------------------|
E|------------5p0---|---------------|------------5p0---|-------------------|

Play Riff 1 twice for Intro


Verse

Riff 2:
e|------------------|---------------|------------------|-------------------|
B|------------------|---------------|------------------|-------------------|
G|------------------|---------------|------------------|-------------------|
D|------7---------5-|(5)--7---------|------7---------5-|(5)--7-------------|
A|--4h5---5p4-----5-|(5)--7---------|--4h5---5p4-----5-|(5)--7-------------|
E|------------5---3-|(3)--5---------|------------5---3-|(3)--5-------------|

e|------------------|---------------|------------------|-------------------|
B|------------------|---------------|------------------|-------------------|
G|------------------|---------------|------------------|-------------------|
D|------7---------5-|(5)--7---------|------7---------5-|(5)--7-------------|
A|--4h5---5p4-----5-|(5)--7---------|--4h5---5p4-----5-|(5)--7-------------|
E|------------5---3-|(3)--5---------|------------5---3-|(3)--5-------------|


Then Chorus with Riff 1 once
Verse and chorus play over again a few times to the out-chorus (same as the chorus but 
out). There are a few fills in the verses but you should be able to figure them out on 
own.

Have fun :)
            
Submit corrections

comments powered by Disqus
↑ Back to top | Aerosmith Tabs for Shame On You. Lyrics for acoustic guitar and electric guitar. Tablatures and chords are parodies/interpretations of the original songs. You may use it for private study, scholarship, research or language learning purposes only