» » »

Aerosmith, Same Old Song And Dance Bass tabs (ver.4)

Artists:  A B C D E F G H I J K L M N O P Q R S T U V W X Y Z # 

Same Old Song And Dance Bass tabs (ver.4)

Aerosmith Tabs
Rating:
0/5 (0 votes)
Same Old Song And Dance lessons Tabs too difficult? Try these video lessons and learn fast
                
SAME OLD SONG AND DANCE (Bassline)
As recorded by Aerosmith

	

Words and Music by Aerosmith

Gtr I (E A D G) - 'Untitled'

 Intro
  Q=132(8=s8)
 4/4
  Gtr I
                                           |-3-| |-3-|
  W          H    Q  E E   +Q    Q  H      E E E E E E +E  E Q
|----------|-------------|---------------|-9-7-------------------|
|----------|-------------|---------------|-----9-7-6-------------|
|----------|---------7-7-|-(7)\----------|-----------7-(7)-0-----|
|----------|-------------|---------------|-------------------3---|


  E E E E E Q  E   E E E E +Q   E E   +E  E E E E Q  E   E E E E +Q   E E
|----------------|------------------|------------------|------------------||
|----------------|------------------|------------------|------------------||
|-------2-5-5--2-|-5-2--------------|---------2-5-5--2-|-5-2--------------||
|-0-0-3----------|-----3-0-(0)--3-0-|-(0)-0-3----------|-----3-0-(0)--3-0-||


 1st Verse
  E E E E E E E E   E E E E E E E E   E E E E E E E E   E E E E E E E E
|-----------------|-----------------|-----------------|-----------------|
|-----------------|-----------------|-----------------|-----------------|
|-----------------|-----------------|-----------------|-----------------|
|---0-0-0-0-0-0-0-|-0-0-0-0-0-0-0-0-|-0-0-0-0-0-0-0-0-|-0-0-0-0-0-0-0-0-|


  E E E E E E E E   E E E E E E E E   E E E E E E E E   E E E E E E E E
|-----------------|-----------------|-----------------|-----------------||
|-----------------|-----------------|-----------------|-----------------||
|-----------------|-----------------|-----------------|-----------------||
|-0-0-0-0-0-0-0-0-|-0-0-0-0-0-0-0-0-|-0-0-0-0-0-0-0-0-|-0-0-0-0-0-0-2-3-||


 1st Chorus
  +Q   E E E E E E   +Q   E E E E E E   +E  E E E E Q  E   E E E E +E  E E E
|------------------|------------------|------------------|-------------------|
|------------------|------------------|------------------|-------------------|
|----------------3-|-(3)--3---5-5-----|---------2-5-5--2-|-5-2---------------|
|-(3)--3---5-5-----|----------------0-|-(0)-0-3----------|-----3-0-(0)-0-2-3-|


  +Q   E E E E E E   +Q   E E E E E E   +E  E E E E Q  E   E E E E +E  E E E
|------------------|------------------|------------------|-------------------||
|------------------|------------------|------------------|-------------------||
|----------------3-|-(3)--3---5-5-----|---------2-5-5--2-|-5-2-----------7-7-||
|-(3)--3---5-5-----|----------------0-|-(0)-0-3----------|-----3-0-(0)-0-----||


 2,3rd Verse
  $
  +E   E E E E E E E   E E E E E E E E   E E E E E E E E   +E  E E E E E E E
|--------------------|-----------------|-----------------|-------------------|
|--------------------|-----------------|-----------------|-------------------|
|-(7)\---------------|-----------------|-----------------|-------------------|
|------0-0-0-0-0-0-0-|-0-0-0-0-0-0-0-0-|-0-0-0-0-0-0-0-0-|-(0)-0-0-0-0-0-0-0-|


  E E E E E E E E   E E E E E E E E   +E  E E E E E E E   E E E E E E E E
|-----------------|-----------------|-------------------|-----------------||
|-----------------|-----------------|-------------------|-----------------||
|-----------------|-----------------|-------------------|-----------------||
|-0-0-0-0-0-0-0-0-|-0-0-0-0-0-0-0-0-|-(0)-0-0-0-0-0-0-0-|-0-0-0-0-0-0-2-3-||


 2,3rd Chorus
  +Q   E E E E E E   +Q   E E E E E E   +E  E E E E Q  E   E E E E +E  E E E
|------------------|------------------|------------------|-------------------|
|------------------|------------------|------------------|-------------------|
|----------------3-|-(3)--3---5-5-----|---------2-5-5--2-|-5-2---------------|
|-(3)--3---5-5-----|----------------0-|-(0)-0-3----------|-----3-0-(0)-0-2-3-|


  +Q   E E E E E E   +Q   E E E E E E   +E  E E E E E E E   +E  E Q  H
|------------------|------------------|-------------------|---------------|
|------------------|------------------|-------------------|---------------|
|----------------3-|-(3)--3---5-5-----|-------------------|---------------|
|-(3)--3---5-5-----|----------------1-|-(1)-1-1---3-3---5-|-(5)-----------|


               Guitar Solo
      To Coda
  H    Q  Q     E E E E E Q  E   E E E E +Q   E E
|------------||----------------|------------------|
|------------||----------------|------------------|
|------3--5--||-------2-5-5--2-|-5-2--------------|
|------------||-0-0-3----------|-----3-0-(0)--3-0-|


  +E  E E E E Q  E   E E E E +Q    E E
|------------------|-------------------|
|------------------|-------------------|
|---------2-5-5--2-|-5-2-------------7-|
|-(0)-0-3----------|-----3-0-(0)--/7---|


  +E  E E E E Q  E   E E E E +E  E E E   +E  E E E E Q  E   E E E E +E  E E E
|------------------|-------------------|------------------|-------------------||
|------------------|-------------------|------------------|-------------------||
|-(7)-----2-5-5--2-|-5-2---------------|---------2-5-5--2-|-5-2-------------2-||
|-----0-3----------|-----3-0-(0)-0-3-0-|-(0)-0-3----------|-----3-0-(0)-0-3---||


   Interlude
    +Q   E E E E E E   E E E E E E E E   +Q   E E E E E E   E E E E E E E E
||-------------------|-----------------|------------------|------------------|
||o------------------|-----------------|------------------|------------------|
||o-(2)--2---2---2---|-2---2---2-----2-|-(2)--2---2---2---|-2---2---2-----2--|
||-------------------|-----------3-5---|------------------|-----------3-5----|


  +Q   E E E E E E   E E E E E E E E   +Q   E E E E E E   +Q   E E +Q   E E
|------------------|-----------------|------------------|-------------------|
|------------------|-----------------|------------------|-------------------|
|-(2)--2---2---2---|-2---2---2-----2-|-(2)--2---2-2---2-|-(2)--4-5-(5)--6---|
|------------------|-----------3-5---|------------------|-----------------0-|


  1.                                      2.
  +E  E E E E Q  E   E E E E +E  E E E     E E E E E Q  E   E E E E +Q   E E
|------------------|--------------------||----------------|------------------|
|------------------|-------------------o||----------------|------------------|
|---------2-5-5--2-|-5-2-------------2-o||-------2-5-5--2-|-5-2--------------|
|-(0)-0-3----------|-----3-0-(0)-0-3----||-0-0-3----------|-----3-0-(0)--3-0-|


                        D.S. al Coda
  +E  E E E E Q  E   E E E E +Q   E E
|------------------|------------------||
|------------------|------------------||
|---------2-5-5--2-|-5-2----------7-7-||
|-(0)-0-3----------|-----3-0-(0)------||


  &
  E E E E E Q  E   E E E E +Q   E E   +E  E E E E Q  E   E E E E +E  E E E
|----------------|------------------|------------------|-------------------|
|----------------|------------------|------------------|-------------------|
|-------2-5-5--2-|-5-2--------------|---------2-5-5--2-|-5-2---------------|
|-0-0-3----------|-----3-0-(0)--3-0-|-(0)-0-3----------|-----3-0-(0)-0-3-0-|


                                                             |-3-|
  +E  E E E E Q  E   E E E E +E   E E E   +E  E E E E Q  E   E E E E E +H
|------------------|--------------------|------------------|------------------*|
|------------------|--------------------|------------------|------------------*|
|---------2-5-5--2-|-5-2------------5-7-|-(7)-----2-5-5--2-|-5-2--------------*|
|-(0)-0-3----------|-----3-0-(0)-/7-----|-----0-3----------|-----5-3-0-(0)----*|



Duration Legend
---------------
W - whole; H - half; Q - quarter; E - 8th; S - 16th; T - 32nd; X - 64th; a - acciaccatura
+ - note tied to previous; . - note dotted; .. - note double dotted
Uncapitalized letters represent notes that are staccato (1/2 duration)
Irregular groupings are notated above the duration line
Duration letters will always appear directly above the note/fret number it represents the
duration for.  Duration letters with no fret number below them represent rests.  Multi-
bar rests are notated in the form Wxn, where n is the number of bars to rest for.  Low
melody durations appear below the staff

Tablature Legend
----------------
 h   - hammer-on
 p   - pull-off
 b   - bend
 pb  - pre-bend
 r   - bend release (if no number after the r, then release immediately)
 /\  - slide into or out of (from/to "nowhere")
 s   - legato slide
 S   - shift slide
 - natural harmonic
[n]  - artificial harmonic
n(n) - tapped harmonic
 ~   - vibrato
 tr  - trill
 T   - tap
 TP  - trem. picking
 PM  - palm muting
\n/  - tremolo bar dip; n = amount to dip
 \n  - tremolo bar down
 n/  - tremolo bar up
/n\  - tremolo bar inverted dip
 =   - hold bend; also acts as connecting device for hammers/pulls
 <> - volume swell (louder/softer)
 x   - on rhythm slash represents muted slash
 o   - on rhythm slash represents single note slash

Misc Legend
-----------
 |  - bar
||  - double bar
||o - repeat start
o|| - repeat end
*|  - double bar (ending)
 :  - bar (freetime)
 $  - Segno
 &  - Coda
Tempo markers -  = BPM(8/16=s8/s16), where s8 = swing 8ths, s16 = swing 16ths
            

comments powered by Disqus
↑ Back to top | Aerosmith Bass for Same Old Song And Dance. Lyrics for acoustic guitar and electric guitar. Tablatures and chords are parodies/interpretations of the original songs. You may use it for private study, scholarship, research or language learning purposes only