» » »

Road Runner Tabs (ver.2)

Artists:  A B C D E F G H I J K L M N O P Q R S T U V W X Y Z # 

Road Runner Tabs (ver.2)

Aerosmith
Rating:
0/5 (0 votes)

Hard to play? Try these video lessons and learn fast.
                Album:Honkin' on Bobo
Transcribed:Logan Reeder


INTRO!

E------------------------------------------------------------------------------|
B------------------------------------------------------------------------------|
G------------------------------------------------------------------------------|
D------------------------------------------------------------------------------|
A------------------------------------------------------------------------------|
E--1/-2/-3/-4/-5/-6/-7/-8/-9/-10/-11/-12/-13/-14/-15/-16/-17/-18/-19/-20/-21/--|
  [--------------------------PICK SLIDE----------------------------------------|

E-------------------------|
B-------------------------|
G-------------------------|
D-------------------------|
A---------------wammy-bar-|
E--0-3-3-3-3-3-(3)--------|

MAIN RIFF!

E------------------------------------------------------------------|
B------------------------------------------------------------------|
G------------------------------------------------------------------|
D------------------------------------------------------------------|
A----------2-2-4-2---------2-2-4-2---------2-2-4-2---------2-2-4-2-|
E--0-0-3-4---------0-0-3-4---------0-0-3-4---------0-0-3-4---------|

E------------------------------------------------------------------|
B------------------------------------------------------------------|
G------------------------------------------------------------------|
D----------2-2-4-2---------2-2-4-2---------------------------------|
A--0-0-3-4---------0-0-3-4-----------------2-2-4-2---------2-2-4-2-|
E----------------------------------0-0-3-4---------0-0-3-4---------|

E--x-x-x-x-x-x-x-x---------------------------------------------------------------|
B--x-x-x-x-x-x-x-x-14Bu(16)let ring-----------------0---0---0---0---0------------|
G--x-x-x-x-x-x-x-x----------------------------------2Bu-2Bu-2Bu-2Bu-2Bu-let-ring-|
D--x-x-x-x-x-x-x-x---------------------------------------------------------------|
A--x-x-x-x-x-x-x-x--------------------------2-2-4-2------------------------------|
E--x-x-x-x-x-x-x-x------------------0-0-3-4--------------------------------------|

E------------------------------------------------------------------|
B------------------------------------------------------------------|
G------------------------------------------------------------------|
D------------------------------------------------------------------|
A----------2-2-4-2---------2-2-4-2---------2-2-4-2---------2-2-4-2-|
E--0-0-3-4---------0-0-3-4---------0-0-3-4---------0-0-3-4---------|

E------------------------------------------------------------------|
B------------------------------------------------------------------|
G------------------------------------------------------------------|
D----------2-2-4-2---------2-2-4-2---------------------------------|
A--0-0-3-4---------0-0-3-4-----------------2-2-4-2---------2-2-4-2-|
E----------------------------------0-0-3-4---------0-0-3-4---------|

E--x-x-x-x-x-x-x-x---------------------------------------------------------------|
B--x-x-x-x-x-x-x-x-14Bu(16)let ring-----------------0---0---0---0---0------------|
G--x-x-x-x-x-x-x-x----------------------------------2Bu-2Bu-2Bu-2Bu-2Bu-let-ring-|
D--x-x-x-x-x-x-x-x---------------------------------------------------------------|
A--x-x-x-x-x-x-x-x--------------------------2-2-4-2------------------------------|
E--x-x-x-x-x-x-x-x------------------0-0-3-4--------------------------------------|


INTERLUDE!

E------------------[----------------]------------------[----------------]-|
B------------------[----------------]------------------[----------------]-|
G------------------[----------------]------------------[----------------]-|
D------------------[--add full lib.-]------------------[--add full lib.-]-|
A----------2-2-4-2-[----------------]----------2-2-4-2-[----------------]-|
E--0-0-3-4---------[----------------]--0-0-3-4---------[----------------]-|

E------------------[----------------]------------------[----------------]-|
B------------------[----------------]------------------[----------------]-|
G------------------[----------------]------------------[----------------]-|
D----------2-2-4-2-[--add full lib.-]------------------[--add full lib.-]-|
A--0-0-3-4---------[----------------]----------2-2-4-2-[----------------]-|
E------------------[----------------]--0-0-3-4---------[----------------]-|

E--x-x-x-x-x-x-x-x---------------------------------------------------------------|
B--x-x-x-x-x-x-x-x-14Bu(16)let ring-----------------0---0---0---0---0------------|
G--x-x-x-x-x-x-x-x----------------------------------2Bu-2Bu-2Bu-2Bu-2Bu-let-ring-|
D--x-x-x-x-x-x-x-x---------------------------------------------------------------|
A--x-x-x-x-x-x-x-x--------------------------2-2-4-2------------------------------|
E--x-x-x-x-x-x-x-x------------------0-0-3-4--------------------------------------|


CHORUS!

E----------------------------------[-------------------------------]-|
B----------------------------------[-------------------------------]-|
G----------------------------------[-------------------------------]-|
D----------------------------------[---------add-full-lib.---------]-|
A----------2-2-4-2---------2-2-4-2-[-------------------------------]-|
E--0-0-3-4---------0-0-3-4---------[-------------------------------]-|

E----------------------------------[-------------------------------]-|
B----------------------------------[-------------------------------]-|
G----------------------------------[-------------------------------]-|
D----------2-2-4-2---------2-2-4-2-[---------add-full-lib.---------]-|
A--0-0-3-4---------0-0-3-4---------[-------------------------------]-|
E----------------------------------[-------------------------------]-|

E--x-x-x-x-x-x-x-x---------------------------------------------------------------|
B--x-x-x-x-x-x-x-x-14Bu(16)let ring-----------------0---0---0---0---0------------|
G--x-x-x-x-x-x-x-x----------------------------------2Bu-2Bu-2Bu-2Bu-2Bu-let-ring-|
D--x-x-x-x-x-x-x-x---------------------------------------------------------------|
A--x-x-x-x-x-x-x-x--------------------------2-2-4-2------------------------------|
E--x-x-x-x-x-x-x-x------------------0-0-3-4--------------------------------------|


INTERLUDE!

E------------------[----------------]------------------[----------------]-|
B------------------[----------------]------------------[----------------]-|
G------------------[----------------]------------------[----------------]-|
D------------------[--add full lib.-]------------------[--add full lib.-]-|
A----------2-2-4-2-[----------------]----------2-2-4-2-[----------------]-|
E--0-0-3-4---------[----------------]--0-0-3-4---------[----------------]-|

E------------------[----------------]------------------[----------------]-|
B------------------[----------------]------------------[----------------]-|
G------------------[----------------]------------------[----------------]-|
D----------2-2-4-2-[--add full lib.-]------------------[--add full lib.-]-|
A--0-0-3-4---------[----------------]----------2-2-4-2-[----------------]-|
E------------------[----------------]--0-0-3-4---------[----------------]-|

E--x-x-x-x-x-x-x-x---------------------------------------------------------------|
B--x-x-x-x-x-x-x-x-14Bu(16)let ring-----------------0---0---0---0---0------------|
G--x-x-x-x-x-x-x-x----------------------------------2Bu-2Bu-2Bu-2Bu-2Bu-let-ring-|
D--x-x-x-x-x-x-x-x---------------------------------------------------------------|
A--x-x-x-x-x-x-x-x--------------------------2-2-4-2------------------------------|
E--x-x-x-x-x-x-x-x------------------0-0-3-4--------------------------------------|


SOLO!

E--12-------12-------12-------12-----------------------|
B--15Bu(17)-15Bu(17)-15Bu(17)-15Bu(17)-----------------|
G------------------------------------------------------|
D------------------------------------------------------|
A----------------------------------------------2-2-4-2-|
E--------------------------------------0-0-3-4---------|

E--12-------12-------12-------12-----------------------|
B--15Bu(17)-15Bu(17)-15Bu(17)-15Bu(17)-----------------|
G------------------------------------------------------|
D------------------------------------------------------|
A----------------------------------------------2-2-4-2-|
E--------------------------------------0-0-3-4---------|

E--12-------12-------12-------12-----------------------|
B--15Bu(17)-15Bu(17)-15Bu(17)-15Bu(17)-----------------|
G------------------------------------------------------|
D----------------------------------------------2-2-4-2-|
A--------------------------------------0-0-3-4---------|
E------------------------------------------------------|

E--12-------12-------12-------12-----------------------|
B--15Bu(17)-15Bu(17)-15Bu(17)-15Bu(17)-----------------|
G------------------------------------------------------|
D------------------------------------------------------|
A----------------------------------------------2-2-4-2-|
E--------------------------------------0-0-3-4---------|

E--12-------12-------12-------12-------12-------12-------12-------12-------|
B--15Bu(17)-15Bu(17)-15Bu(17)-15Bu(17)-15Bu(17)-15Bu(17)-15Bu(17)-15Bu(17)-|
G--------------------------------------------------------------------------|
D--------------------------------------------------------------------------|
A--------------------------------------------------------------------------|
E--------------------------------------------------------------------------|

E--12-12------------------------------------|
B-------15/12-------12/14-14Bu(16)/14-12----|
G-------------------12/14-14Bu(16)/14-12----|
D-------------12-14----------------------14-|
A-------------------------------------------|
E-------------------------------------------|


CHORUS!

E----------------------------------[-------------------------------]-|
B----------------------------------[-------------------------------]-|
G----------------------------------[-------------------------------]-|
D----------------------------------[---------add-full-lib.---------]-|
A----------2-2-4-2---------2-2-4-2-[-------------------------------]-|
E--0-0-3-4---------0-0-3-4---------[-------------------------------]-|

E----------------------------------[-------------------------------]-|
B----------------------------------[-------------------------------]-|
G----------------------------------[-------------------------------]-|
D----------2-2-4-2---------2-2-4-2-[---------add-full-lib.---------]-|
A--0-0-3-4---------0-0-3-4---------[-------------------------------]-|
E----------------------------------[-------------------------------]-|

E--x-x-x-x-x-x-x-x---------------------------------------------------------------|
B--x-x-x-x-x-x-x-x-14Bu(16)let ring-----------------0---0---0---0---0------------|
G--x-x-x-x-x-x-x-x----------------------------------2Bu-2Bu-2Bu-2Bu-2Bu-let-ring-|
D--x-x-x-x-x-x-x-x---------------------------------------------------------------|
A--x-x-x-x-x-x-x-x--------------------------2-2-4-2------------------------------|
E--x-x-x-x-x-x-x-x------------------0-0-3-4--------------------------------------|

!ell there you have it. Hope you like it.

Rock On!!!
            
Hard to play? Try these video lessons and learn fast. | Correct




comments powered by Disqus
↑ Back to top | Tablatures and chords are parodies/interpretations of the original songs. You may use it for private study, scholarship, research or language learning purposes only