» » »

Aerosmith, Road Runner Bass tabs (ver.1)

Artists:  A B C D E F G H I J K L M N O P Q R S T U V W X Y Z # 

Road Runner Bass tabs (ver.1)

Aerosmith Tabs
 Rating:
4/5 (4 votes)
Road Runner lessons Tabs too difficult? Try these video lessons and learn fast
                Road Runner by Aerosmith
Standard Tuning

(0.20)
G:----------|----------|----------|----------|
D:----------|---------2|----------|---------2|  x3
A:----------|2--2--4---|----------|2--2--4---|
E:0--0--3--4|----------|0--0--3--4|----------|

(0.38)
G:----------|---------2|----------|---------2|
D:----------|2--2--4---|----------|2--2--4---|  x2
A:0--0--3--4|----------|0--0--3--4|----------|
E:----------|----------|----------|----------|

G:----------|----------|----------|----------|
D:----------|---------2|----------|---------2|  
A:----------|2--2--4---|----------|2--2--4---|
E:0--0--3--4|----------|0--0--3--4|----------|

G:----------|----------|----------|----------|
D:----------|----------|----------|----------|
A:2--2--2--2|2--2--2--2|0---------|----------|
E:----------|----------|----------|----------|

G:----------|----------|----------|----------|
D:----------|---------2|----------|----------|
A:----------|2--2--4---|0--2--2--2|2--2--2--2|
E:0--0--3--4|----------|----------|----------|

G:----------|----------|----------|----------|
D:----------|---------2|----------|---------2|  x2  
A:----------|2--2--4---|----------|2--2--4---|
E:0--0--3--4|----------|0--0--3--4|----------|

(1.01)
G:----------|---------2|----------|---------2|
D:----------|2--2--4---|----------|2--2--4---|  
A:0--0--3--4|----------|0--0--3--4|----------|
E:----------|----------|----------|----------|


G:----------|----------|----------|----------|
D:----------|---------2|----------|---------2|  
A:----------|2--2--4---|----------|2--2--4---|
E:0--0--3--4|----------|0--0--3--4|----------|

G:----------|----------|----------|----------|
D:----------|----------|----------|----------|
A:2--2--2--2|2--2--2--2|0---------|----------|
E:----------|----------|----------|----------|

G:----------|----------|----------|----------|-----|
D:----------|---------2|----------|----------|-----|
A:----------|2--2--4---|0--2--2--2|2--2--2--2|2\ --|
E:0--0--3--4|----------|----------|----------|-----|
                        
G:----------|----------|----------|----------|
D:----------|----------|----------|----------|
A:----------|2--2--4--2|----------|----------|
E:0--0--3--4|----------|0---------|----------|

G:----------|----------|----------|----------|
D:----------|----------|----------|----------|
A:----------|2--2--4--2|----------|5----7-7\-|
E:0--0--3--4|----------|-00-3-5-00|--00------|

G:----------|----------|----------|----------|
D:----------|2--2--4--2|----------|----------|  x2
A:0--0--3--4|----------|0---------|----------|
E:----------|----------|----------|----------|

G:----------|----------|----------|----------|
D:----------|----------|----------|----------|
A:2--2--2--2|2--2--2--2|0---------|----------|
E:----------|----------|----------|----------|

G:----------|----------|----------|----------|
D:----------|---------2|----------|----------|
A:----------|2--2--4---|0--2--2--2|2--2--2--2|
E:0--0--3--4|----------|----------|----------|

G:----------|----------|----------|----------|
D:----------|---------2|----------|---------2|  x2
A:----------|2--2--4---|----------|2--2--4---|
E:0--0--3--4|----------|0--0--3--4|----------|

G:----------|---------2|----------|---------2|
D:----------|2--2--4---|----------|2--2--4---| 
A:0--0--3--4|----------|0--0--3--4|----------|
E:----------|----------|----------|----------|


G:----------|----------|----------|----------|
D:----------|---------2|----------|---------2|  x2
A:----------|2--2--4---|----------|2--2--4---|
E:0--0--3--4|----------|0--0--3--4|----------|

G:----------|----------|----------|----------|
D:----------|----------|----------|----------|
A:2--2--2--2|2--2--2--2|0---------|----------|
E:----------|----------|----------|----------|

G:----------|----------|----------|----------|
D:----------|---------2|----------|----------|
A:----------|2--2--4---|0--2--2--2|2--2--2--2|
E:0--0--3--4|----------|----------|----------|

G:----------|----------|----------|----------|
D:----------|---------2|----------|----------|  x2
A:----------|2--2--4---|----------|----------|
E:0--0--3--4|----------|0---------|----------|

G:----------|----------|----------|----------|
D:----------|2--2--4--2|----------|----------|
A:0--0--3--4|----------|0---------|----------|
E:----------|----------|----------|----------|

G:----------|----------|----------|----------|
D:----------|----------|3/----/---|/----/----|
A:----------|2--2--4--2|3/----/---|/----/----|
E:0--0--3--4|----------|1/----/---|/----/----|

G:----------|----------|----------|----------|
D:----------|----------|----------|----------|
A:2--2--2--2|2--2--2--2|0---------|----------|
E:----------|----------|----------|----------|

G:----------|----------|----------|----------|
D:----------|---------2|----------|----------|
A:----------|2--2--4---|0--2--2--2|2--2--2--2|
E:0--0--3--4|----------|----------|----------|

G:----------|----------|----------|----------|
D:----------|---------2|----------|---------2|  x2
A:----------|2--2--4---|----------|2--2--4---|
E:0--0--3--4|----------|0--0--3--4|----------|

G:----------|---------2|----------|---------2|
D:----------|2--2--4---|----------|2--2--4---|
A:0--0--3--4|----------|0--0--3--4|----------|
E:----------|----------|----------|----------|


G:----------|----------|----------|----------|
D:----------|---------2|----------|---------2|  
A:----------|2--2--4---|----------|2--2--4---|
E:0--0--3--4|----------|0--0--3--4|----------|

G:----------|----------|----------|----------|
D:----------|----------|----------|----------|
A:2--2--2--2|2--2--2--2|0---------|----------|
E:----------|----------|----------|----------|

G:----------|----------|----------|----------|
D:----------|---------2|----------|----------|
A:----------|2--2--4---|0--2--2--2|2--2--2--2|
E:0--0--3--4|----------|----------|----------|

G:----------|----------|----------|----------|
D:----------|---------2|----------|---------2|  x9
A:----------|2--2--4---|----------|2--2--4---|
E:0--0--3--4|----------|0--0--3--4|----------|

(Outro)
G:----------|----------|----------|----------|-----|
D:----------|---------2|----------|------1--2|-----|
A:----------|2--2--4---|----------|2--4------|-----|
E:0--0--3--4|----------|0--0--3--4|----------|--0--|

Thanks, please rate it after you learn it.
_TheBassist01_
            
Submit corrections

comments powered by Disqus
↑ Back to top | Aerosmith Bass for Road Runner. Lyrics for acoustic guitar and electric guitar. Tablatures and chords are parodies/interpretations of the original songs. You may use it for private study, scholarship, research or language learning purposes only