>
 >
Pink 2

Pink 2 Bass Tabs

Aerosmith - Pink 2 chords, tabs, tablatures, lyrics

Guitar lessons | Add/correct | Request | Top 50 tabs Artists:  A B C D E F G H I J K L M N O P Q R S T U V W X Y Z 0-9

Pink 2 Bass Tabs – Aerosmith

CD, Sheet music, Poster

Do you like Pink 2? Share with your friends now
Bass TabsBass Tabs v2ChordsDrum TabsTabsTabs v2Ukulele

PINK (Bassline)
As recorded by Aerosmith

	



Gtr I (B E A D G) - 'Gtr. 1'

  Q=88
 4/4
  Gtr I
  Q  E S S E E E S S   Q  E S S E E E E   Q  E S S E E E S S
|--------------------|------------------|--------------------|
|--------------------|------------------|--------------------|
|--------------------|------------------|--------------------|
|-3--3---3-1-1---1h3-|------------------|-3--3---0-1-1---1h3-|
|--------------------|-1--1---1-3-3-3-3-|--------------------|


  E E E S S E E E E   Q  E S S E E E S S   E E E S S E E E E   Q.   Q  Q  E
|-------------------|--------------------|-------------------|--------------|
|-------------------|--------------------|-------------------|--------------|
|-------------------|--------------------|-------------------|--------------|
|-------------------|-3--3---0-1-1---1h3-|-------------------|------------5-|
|-1-1---1-2-3-3-3-3-|--------------------|-1-1---1-2-3-3---3-|-5----7--8----|


  E E E E E E E E   Q.   E E E E E    E E E E E E Q     Q  E S S E E E E
|-----------------|-----------------|-----------------|-------------------|
|-----------------|-----------------|-----------------|-------------------|
|-----------------|-8---------------|-8-8-8-8-8-8-----|-------------------|
|-5-5---5---7---8-|------8s1-1---1/-|-------------8\--|-3------3-1-1---1--|
|-----------------|-----------------|-----------------|-------------------|


  Q  E S S E E E E   E E Q  E E E S S   Q  E S S E E E E   E E Q  E E E S S
|------------------|------------------|------------------|------------------|
|------------------|------------------|------------------|------------------|
|------------------|------------------|------------------|------------------|
|------------------|-3-3----1-1---1h3-|------------------|-3-3----1-1---1h3-|
|-1------1-3-3---3-|------------------|-1------1-3-3---3-|------------------|


  E E E S S E E E E   E E Q  E E E S S
|-------------------|------------------|
|-------------------|------------------|
|-------------------|------------------|
|-------------------|-3-3----1-1---1h3-|
|-1-1-----1-3-3-3-3-|------------------|


  E E E S S E E E S S   Q  E E E E E S S
|---------------------|-------------------|
|---------------------|-------------------|
|-----------------5---|-------------------|
|---------------5---5-|-3--3---1-1---1h3--|
|-1-1-----1-3-3-------|-------------------|


  E E E S S E E E S S   E E E S S E E E S S   E E E E S S E E E
|---------------------|-----------------2h4-|-5------------------|
|---------------------|---------------------|--------------------|
|-----------------3h5-|---------------------|---3---3-5p0--------|
|---------------------|-3-3-3---3-1-1-------|-----3---------1-2--|
|-1-1-1---1-3-3-------|---------------------|-------------3------|


  E E E S S E E E S S   E E E S S E E E E
|---------------------|-------------------|
|---------------------|-------------------|
|---------------------|-------------------|
|-3-3-----3-1-1---1h3-|-------------------|
|---------------------|-1-1-----1-3-3---3-|


  E E E S S E E E E   E E E E T S. E E E
|-------------------|---------------------|
|-------------------|---2-3-5-5s7----4-5--|
|---------------0-2-|-3------------5------|
|-3-3-3---3-1-3-----|---------------------|
|-------------------|---------------------|


  E E E S S E E E S S   E E E. S E E E E
|---------------------|------------------|
|---------------------|------------------|
|---------------------|------------------|
|-3-3-----3-1-1---1h3-|------------------|
|---------------------|-1-1-1--1s3-3---3-|


  Q.   +S  S E E E S S   E E E E E E E E
|----------------------|-----------------|
|----------------------|-----------------|
|----------------------|---3-------------|
|-3----(3)-3-1-1---1h3-|-----------------|
|----------------------|-1-----1s3-3---3-|


  Q  E S S E E E S S   E E  E  E E E   E  E    Q  E Q  Q  E   Q  S S E E Q  E
|--------------------|-----------------------|--------------|------------------|
|--------------------|---3s10---------12-----|--------------|------------------|
|--------------------|-3------10s5-------12\-|-7----7-------|------------------|
|-3------3-1-1---1h3-|-------------5/--------|---------7--6-|-5--5-5-5---3--0--|
|--------------------|-----------------------|--------------|------------------|


  Q.   E  E Q  E   E E E E E E Q     Q.   S S E E E E   E E +E. S E E E E
|----------------|-----------------|------------------|--------------------|
|----------------|-----------------|------------------|--------------------|
|---------8-8----|-8-8-8-8-8-8-----|------------------|--------------------|
|-1----3/------8-|-------------8\--|-3----1h3-1-1---1-|--------------------|
|----------------|-----------------|------------------|-1-1-(1)-1-3-3---3--|


  E E Q  E E E E   E E E E E E S S S S   E E Q  E E E S S   E E E S S E E E E
|----------------|---------------------|------------------|-------------------|
|----------------|---------------------|------------------|-------------------|
|----------------|---------------------|------------------|-------------------|
|-3-3----1-1---1-|-----------------3---|-3-3----1-1---1h3-|-------------------|
|----------------|-1-1---1-3-3-3h5---5-|------------------|-1-1---1-1-3-3-3-3-|


  H    E E E E   E E E E E E S S E    E E E S S E E E S S   E E E. S E E E E
|--------------|--------------------|---------------------|-------------------|
|--------------|-----5---7----------|---------------------|-------------------|
|--------------|-3-3---3---5s9-9-9\-|---------------------|-------------------|
|-3----1-1---1-|--------------------|-3-3-----3-1-1---1h3-|-------------------|
|--------------|--------------------|---------------------|-1-1-1--1s3-3---3--|


  Q.   +S  S E E E S S   E E E E E E E E   Q.   +S  S E E E S S
|----------------------|-----------------|----------------------|
|----------------------|-----------------|----------------------|
|----------------------|---3-------------|----------------------|
|-3----(3)-3-1-1---1h3-|-----------------|-3----(3)-3-1-1---1h3-|
|----------------------|-1-----1s3-3---3-|----------------------|


  E E E E E E S S S S   Q.   Q  Q  E   +Q   E E E Q  E   Q.   E E Q  E
|---------------------|--------------|-----------------|----------------|
|---------------------|--------------|-----------------|----------------|
|-----------5-5---5s7-|-7------------|-----------------|-8--------------|
|-----3---------5-----|-0----2--3--5-|-(5)----5---7--8-|------8s1-1--3/-|
|-1-1---1-3-----------|--------------|-----------------|----------------|


  E E E E E E  Q     E Q  S S E E E E
|------------------|------------------|
|-------------10\--|------------------|
|-8-8-8-8-8-8------|------------------|
|------------------|-3-3--3-3-1-1---1-|
|------------------|------------------|


              |-3--|
  Q  E. S E E S  S S  E   Q  E S S E E E E
|-----------------------|-------------------|
|-----------5s8h10p8----|--------------6----|
|-3--3--3-3----------10-|-------------------|
|-----------------------|-6--6-6-6-4-4---4/-|
|-----------------------|-------------------|


  E S S E S S E S S S S E   E E E S S E E.S S S   E E E E E E E E
|-------------------------|---------------------|------------------|
|-------------------------|---------------------|------------------|
|-6-6-6---6-6-----4-6-4-6-|-3-3-3-3-3-1-1p0-1h3-|------------------|
|---------------6---------|---------------------|-1-1---1---1---1/-|
|-------------------------|---------------------|------------------|


                   2/4             4/4
  E E E E E E E E   E S S S S S S   S  E.  +H.        W
|-----------------|---------------|-----------------|------|
|-----------------|-0-4p0-4p0-7p0-|-8s12--(12)------|------|
|-5-5-5-5-5-5-5-5-|---------------|-----------------|------|
|-----------------|---------------|-----------------|------|
|-----------------|---------------|-----------------|------|


  W          W          H    Q  E  E    Q  E  E E E E  E
|----------|----------|---------------|-------------------|
|----------|----------|---------------|---------------10\-|
|----------|----------|---------------|-------------------|
|----------|----------|-----------10\-|-3----10s1-1-------|
|----------|----------|---------------|-------------------|


  E E E  E  E E E  E    E E E  E E E E  E
|---------------------|--------------------|
|-------10\-----------|----------------10\-|
|-3-3-------5-5-------|--------------------|
|-----------------10\-|-3-3---10s1-1-------|
|---------------------|--------------------|


  E E E E S   S  S  S  S  S  E    E E E. S E E E S S
|-------------------------------|--------------------|
|-----5------12-12-12-12-12-12\-|--------------------|
|-3-3---3-5/--------------------|--------------------|
|-------------------------------|-3-3-3--3-1-1---1s3-|
|-------------------------------|--------------------|


  E E E. S E E E S S   Q.   +S  S E E E S S
|--------------------|----------------------|
|--------------------|----------------------|
|--------------------|----------------------|
|--------------------|-3----(3)-3-1-1---1h3-|
|-1-1-1--1-3-3---3h5-|----------------------|


  E E E E E E S S E   Q.   +S  S E Q  E
|-------------------|--------------------|
|-------------------|--------------------|
|-----------------5-|--------------------|
|---------------5---|-3----(3)-0-1-1--1--|
|-1-1---1-3-3-------|--------------------|


  E E. S S S E E E E   Q.   E E E E E   Q  E E E E E E   Q.   E E Q  E
|--------------------|----------------|----------------|-----------------|
|--------------------|----------------|----------------|-----------------|
|--------------------|----------------|----------------|-8---------------|
|--------------------|--------------5-|-5----5---7---8-|------8s1-1--3/--|
|-1-1--0-1-2-3-3-3-3-|-5----7---8-----|----------------|-----------------|


  E E E E E E Q     W          +W
|-----------------|----------|--------*|
|-----------------|----------|--------*|
|-8-8-8-8-8-8-----|----------|--------*|
|-------------8\--|-3--------|-(3)----*|
|-----------------|----------|--------*|



Duration Legend
---------------
W - whole; H - half; Q - quarter; E - 8th; S - 16th; T - 32nd; X - 64th; a - acciaccatura
+ - note tied to previous; . - note dotted; .. - note double dotted
Uncapitalized letters represent notes that are staccato (1/2 duration)
Irregular groupings are notated above the duration line
Duration letters will always appear directly above the note/fret number it represents the
duration for.  Duration letters with no fret number below them represent rests.  Multi-
bar rests are notated in the form Wxn, where n is the number of bars to rest for.  Low
melody durations appear below the staff

Tablature Legend
----------------
 h   - hammer-on
 p   - pull-off
 b   - bend
 pb  - pre-bend
 r   - bend release (if no number after the r, then release immediately)
 /\  - slide into or out of (from/to "nowhere")
 s   - legato slide
 S   - shift slide
 - natural harmonic
[n]  - artificial harmonic
n(n) - tapped harmonic
 ~   - vibrato
 tr  - trill
 T   - tap
 TP  - trem. picking
 PM  - palm muting
\n/  - tremolo bar dip; n = amount to dip
 \n  - tremolo bar down
 n/  - tremolo bar up
/n\  - tremolo bar inverted dip
 =   - hold bend; also acts as connecting device for hammers/pulls
 <> - volume swell (louder/softer)
 x   - on rhythm slash represents muted slash
 o   - on rhythm slash represents single note slash

Misc Legend
-----------
 |  - bar
||  - double bar
||o - repeat start
o|| - repeat end
*|  - double bar (ending)
 :  - bar (freetime)
 $  - Segno
 &  - Coda
Tempo markers -  = BPM(8/16=s8/s16), where s8 = swing 8ths, s16 = swing 16ths





Comments


Popular Aerosmith tabs & chords
Chip Away The Stone 1 Bass Tabs
Come Together 4 Bass Tabs
Same Old Song And Dance 3 Bass Tabs
I Don't Want To Miss A Thing Chords
My Fist Your Face Chords
What It Takes Chords
Eat The Rich Tabs
Hoodoo / Voodoo Medicine Man Tabs
Walk On Water 1 Tabs
Full Circle Ukulele


Song lyrics



↑ Back to top | Tablatures and chords are parodies/interpretations of the original songs. You may use it for private study, scholarship, research or language learning purposes only
© 2014 AZChords.com Contact us | Privacy policy | DMCA | Add/correct tabs | Request tabs | Top 50 tabs