» » »

Aerosmith, Mama Kin Bass tabs (ver.2)

Artists:  A B C D E F G H I J K L M N O P Q R S T U V W X Y Z # 

Mama Kin Bass tabs (ver.2)

Aerosmith Tabs
 Rating:
4/5 (4 votes)
Mama Kin lessons Tabs too difficult? Try these video lessons and learn fast
                Mama Kin by Aerosmith
Standard Tuning

(Intro)
G:-------------------------------|
D:-------------------------------|
A:7----------4--4-5-6-7--7-7--7-7|
E:----7--5-5---------------------|

G:----------------------------|
D:----------------------------|
A:7-7-5-7--------------4-5-6-7|
E:--------7-7-5-7--5-5--------|

G:---------------|
D:---------------|
A:7-7-5---7-7-5--|
E:------0-------7|

G:--------------------------------------|
D:-----------------------7--------------|
A:7-7-5-7--------------4---5-6-7-7-7-7-7|
E:--------7-7-5-7--5-5------------------|

G:------------------------------|
D:-----------------------7------|
A:---------------------4---5-6-7|
E:0-0-2-2-3-3-4-4--0-0----------|

G:-----------------|
D:-----------------|
A:5-7-7-7-5-7-7-5--|
E:----------------5|

G:-------------------------------------|
D:--------7-----------6-7-9------------|
A:------4---5-6-7-7-7-------7-7-7-7-5--|
E:0-0-5-------------------------------5|

G:---------------------------|
D:------7--------------------|
A:----4---5-6-7-7-7-7-7-7-7-7|
E:0-5------------------------|

G:------4-4-4-4-4-2-3-4--4-4-4-4-4-4|
D:4(16)-----------------------------|
A:----------------------------------|
E:----------------------------------|

G:-------------------------------|
D:-------------------------------|
A:7----------4--4-5-6-7--7-7--7-7|
E:----7--5-5---------------------|

G:------------------------|
D:------------------------|
A:7-7-7-7---5--7-7-7-7---5|
E:--------7------------7--|

G:--------------------------------------|
D:--------------------------------------|
A:7-7---5-7---5-7---5-7-7-5-5-----5-5--7|
E:----7-----7-----7-----------7-7-------|

G:-----------------------------------|
D:-----------------------------------|  x3
A:7-------4-5-6-7-7-7-------4---5---7|
E:--0-0-0-------------0-5-0---0---0--|

G:-------------------------------|
D:--------7----------------------|
A:----------5-6-7----------------|
E:0-0-5-5---------0-0-2-2-3-3-4-4|

G:---------------|
D:--------7------|
A:----------5-6-7|
E:0-0-5-5--------|

G:-------------------------------------|
D:--------7-----------6-7-9------------|
A:------4---5-6-7-7-7-------7-7-7-7-5--|
E:0-0-5-------------------------------5|

G:---------------------------|
D:------7--------------------|
A:----4---5-6-7-7-7-7-7-7-7-7|
E:0-5------------------------|

G:------4-4-4-4-4--2-3-4--4-4-4-4-4-4|
D:4(16)------------------------------|
A:-----------------------------------|
E:-----------------------------------|

G:-----------------------------------|
D:-----------------------------------|  x2
A:7-------4-5-6-7-7-7-------4---5---7|
E:--0-0-0-------------0-5-0---0---0--|

G:---------------|
D:--------7------|
A:----------5-6-7|
E:0-0-5-5--------|

G:---------------|
D:---------------|
A:7-7-5---7-7-5--|
E:------0-------7|

G:-------------------------------|
D:--------7----------------------|
A:----------5-6-7----------------|
E:0-0-5-5---------0-0-2-2-3-3-4-4|

G:-------------------------------------|
D:--------7-----------6-7-9------------|
A:------4---5-6-7-7-7-------7-7-7-7-5--|
E:0-0-5-------------------------------5|

G:---------------------------|
D:------7--------------------|
A:----4---5-6-7-7-7-7-7-7-7-7|
E:0-5------------------------|

G:------4-4-4-4-4--2-3-4--4-4-4-4-4-4|
D:4(16)------------------------------|
A:-----------------------------------|
E:-----------------------------------|

Keep in touch with mama kin...
G:----------------------|
D:----7-7--5-5--4-4-----|  x4
A:7-0-------------------|
E:-------------------7-7|

G:--------------------------------|
D:--------------------------------|
A:3(16)--2(16)---0-0-0------------|
E:-------------3-------3-3-2-2-0-0|

G:-----------------------------|
D:------------------------2-2-2|
A:0-0---0-0------3-3--5-5------|
E:----3------5-5---------------|

G:-----------------------------------|
D:-----------------------------------|  x2
A:7-------4-5-6-7-7-7-------4---5---7|
E:--0-0-0-------------0-5-0---0---0--|

G:---------------|
D:--------7------|
A:----------5-6-7|
E:0-0-5-5--------|

G:-------------------------------------|
D:--------7-----------6-7-9------------|
A:------4---5-6-7-7-7-------7-7-7-7-5--|
E:0-0-5-------------------------------5|

G:---------------------------|
D:------7--------------------|
A:----4---5-6-7-7-7-7-7-7-7-7|
E:0-5------------------------|

G:------4-4-4-4-4--2-3-4--4-4-4-4-4-4|
D:4(16)------------------------------|
A:-----------------------------------|
E:-----------------------------------|

G:----------------------|
D:----7-7--5-5--4-4-----|  x4
A:7-0-------------------|
E:-------------------7-7|

G:--------------------------------|
D:--------------------------------|
A:3-3-3-3-3-3-3-3--5-5-5-5-5-5-5-5|
E:--------------------------------|

(Outro)
G:----4--------|      |-------------------|
D:------------2|  X4  |-------------------|
A:5------5-----|      |2-2-2-2-2-2-2-2---2|
E:-------------|      |-------------------|

Thanks, please rate after you learn it.
_TheBassist01_
            
Submit corrections

comments powered by Disqus
↑ Back to top | Aerosmith Bass for Mama Kin. Lyrics for acoustic guitar and electric guitar. Tablatures and chords are parodies/interpretations of the original songs. You may use it for private study, scholarship, research or language learning purposes only