>
 >
Lick And A Promise

Lick And A Promise Guitar Tabs

Aerosmith - Lick And A Promise chords, tabs, tablatures, lyrics

Guitar lessons | Add/correct | Request | Top 50 tabs Artists:  A B C D E F G H I J K L M N O P Q R S T U V W X Y Z 0-9

Lick And A Promise Guitar Tabs – Aerosmith

CD, Sheet music, Poster

Do you like Lick And A Promise? Share with your friends now
ChordsTabsTabs v2Ukulele
LICK AND A PROMISE by Aerosmith
ROCKS


Naaaa naaaa naaa naa na
Another gem from ROCKS!

TUNING:
Eb Ab Db Gb Bb Eb
E flat/Halfstep Down

s are slide the strings up to the coresponding frets
(#) are to indicate sustains
blah blah blah
 

Intro

  Gtr I
|---------|-----------------|---------------------|------------------------|
|---------|-----------------|---------------------|------------------------|
|---------|-----------------|---------------------|------------------------|
|---------|---6s7---------9s|-10----------11s12---|---------13s14-15-16-17-|
|---------|-0-4s5---6s7-0-7s|--8---9s10-0--9s10---|-11s12-0-11s12-13-14-15-|
|---------|-------0-4s5-----|----0-7s=8---------0-|--9s10------------------|
|
| Gtr II
|---------|-----------------|---------------------|------------------------|
|---------|-----------------|---------------------|------------------------|
|---------|-----------------|---------------------|------------------------|
|---------|---------------9-|-10----------11-12---|---------13-14-15-16-17-|
|---------|-0-4s5---6-7-0-7-|--8---9-10-0--9-10---|-11-12-0-11-12-13-14-15-|
|---------|-------0-4-5-----|----0-7--8---------0-|--9-10------------------|


Verse
|---------------------|-----------------|-------------------|-----------------|
|---------------------|-----------------|-------------------|-----------------|
|---------------------|-----------------|-------------------|-----------------|
|---(17)\--5---5----5-|-(5)---5----5-5--|---3-----------3---|------3-(3)------|
|---(15)\--3-0-3--0-3-|-(3)-0-3--0-3-3--|-0-1-0-------0-1-0-|----0-1-(1)-0----|
|---------------------|-----------------|-------3-(3)-------|-3------------3--|
|
|---------------------|-----------------|-------------------|-----------------|
|---------------------|-----------------|-------------------|-----------------|
|---------------------|-----------------|-------------------|-----------------|
|---(17)\--5---5----5-|-(5)---5----5-5--|---3---------3-3---|----3-3-(3)-3----|
|---(15)\--3-0-3--0-3-|-(3)-0-3--0-3-3--|-0-1-0-------0-1-0-|----0-1-(1)-0----|
|---------------------|-----------------|-------3-(3)-------|-3------------3--|


|----------------|-----------------|-------------------|------------------|
|----------------|-----------------|-------------------|------------------|
|----------------|-----------------|-------------------|------------------|
|---5-5---5----5-|-(5)---5----5-5--|---3-----------3---|------3-(3)---3---|
|-0-3-3-0-3--0-3-|-(3)-0-3--0-3-3--|-0-1-0-------0-1-0-|----0-1-(1)-0-1---|
|----------------|-----------------|-------3-(3)-------|-3----------------|
|
|----------------|-----------------|-------------------|------------------|
|----------------|-----------------|-------------------|------------------|
|----------------|-----------------|-------------------|------------------|
|---5-5---5----5-|-(5)---5----5-5--|---3---------3-3---|----3-3-(3)-3-----|
|-0-3-3-0-3--0-3-|-(3)-0-3--0-3-3--|-0-1-0-------0-1-0-|----0-1-(1)-0-----|
|----------------|-----------------|-------3-(3)-------|-3------------3---|



|----------------|-----------------|---------------------|-----------------|
|----------------|-----------------|---------------------|-----------------|
|----------------|-----------------|---------------------|-----------------|
|---5-5---5----5-|-(5)---5----5-5--|---3-------------3---|------3-(3)------|
|-0-3-3-0-3--0-3-|-(3)-0-3--0-3-3--|-0-1-0-------0---1-0-|----0-1-(1)-0----|
|----------------|-----------------|-------3-(3)---------|-3------------3--|
|
|----------------|-----------------|---------------------|-----------------|
|----------------|-----------------|---------------------|-----------------|
|----------------|-----------------|---------------------|-----------------|
|---5-5---5----5-|-(5)---5----5-5--|---3---------3-3-3---|----3-3-(3)-3----|
|-0-3-3-0-3--0-3-|-(3)-0-3--0-3-3--|-0-1-0-------0-0-1-0-|----0-1-(1)-0----|
|----------------|-----------------|-------3-(3)---------|-3------------3--|


|----------------|-----------------|-------------------|-------------------|
|----------------|-----------------|-------------------|-------------------|
|----------------|-----------------|-------------------|-------------------|
|---5-5---5----5-|-(5)---5----5-5--|---3-----------3---|------3-(3)---3/---|
|-0-3-3-0-3--0-3-|-(3)-0-3--0-3-3--|-0-1-0-------0-1-0-|----0-1-(1)-0-1/---|
|----------------|-----------------|-------3-(3)-------|-3-----------------|
|
|----------------|-----------------|-------------------|-------------------|
|----------------|-----------------|-------------------|-------------------|
|----------------|-----------------|-------------------|-------------------|
|---5-5---5----5-|-(5)---5----5-5--|---3---------3-3---|----3-3-(3)-3------|
|-0-3-3-0-3--0-3-|-(3)-0-3--0-3-3--|-0-1-0-------0-1-0-|----0-1-(1)-0------|
|----------------|-----------------|-------3-(3)-------|-3------------3/---|


 Bridge
 
every night for free

  Gtr III
|----------------------|----------------------------|
|----------------------|----------------------------|
|----------------------|----------------------------|
|----------------------|----------------------------|
|----------------------|----------------------------|
|-it's-gettin'-there---|----------------------------|
|
| Gtr I
| PM      PM      PM        PM
|----------------------|----------------------------|
|----------------------|----------------------------|
|----------------------|----------------------------|
|---13s14---13s14---13s|=14---13s14-(14)-14-14-14\--|
|-0-11s12-0-11s12-0-11s|=12-0-11s12-(12)-12-12-12\--|
|----------------------|----------------------------|
|
| Gtr II
|----------------------|----------------------------|
|----------------------|----------------------------|
|----------------------|----------------------------|
|---13s14---13s14---13s|=14---13s14-(14)------------|
|-0-11s12-0-11s12-0-11s|=12-0-11s12-(12)------------|
|----------------------|------------------------0---|


            PM
|-----------------|------------------|
|-----------------|------------------|
|-9--9--(9)-----9-|-(9)---9--9-9-9---|
|-9--9--(9)-x---9-|-(9)---9--9-9-9---|
|-7--7--(7)-x---7-|-(7)---7--7-7-7/--|
|-----------0-0---|-------7----------|
|
|-----------------|------------------|
|-----------------|------------------|
|-9--9--(9)-----9-|-(9)---9--9-9-9---|
|-9--9--(9)-----9-|-(9)-9-9--9-9-9---|
|-7--7--(7)-7---7-|-(7)-7-7--7-7-7/--|
|-----------7-7---|-------7--7-------|
|
|           PM|
|-----------------|------------------|
|-----------------|------------------|
|-9--9--(9)-----9-|-(9)---9--9-9-9/--|
|-9--9--(9)-----9-|-(9)---9--9-9-9/--|
|-7--7--(7)-----7-|-(7)---7--7-7-7/--|
|-----------0-0---|-------7----------|


|----------------------|----------------------------|
|----------------------|----------------------------|
|----------------------|----------------------------|
|----------------------|----------------------------|
|----------------------|----------------------------|
|--another-pause-------|----------------------------|
|
| PM      PM      PM        PM
|----------------------|----------------------------|
|----------------------|----------------------------|
|----------------------|----------------------------|
|---13s14---13s14---13s|=14---13s14-(14)-14-14-14\--|
|-0-11s12-0-11s12-0-11s|=12-0-11s12-(12)-12-12-12\--|
|----------------------|----------------------------|
|
|----------------------|----------------------------|
|----------------------|----------------------------|
|----------------------|----------------------------|
|---13s14---13s14---13s|=14---13s14-(14)------------|
|-0-11s12-0-11s12-0-11s|=12-0-11s12-(12)------------|
|----------------------|------------------------0---|


              PM
|-------------------|-------------------|
|-------------------|-------------------|
|-9---9---(9)-----9-|-(9)--9---9-9-9s=7-|
|-9---9---(9)-----9-|-(9)--9---9-9-9s=7-|
|-7--(7)--(7)-----7-|-(7)--7---7-7-7s=5-|
|-------------0-0---|-------------------|
|
|-------------------|-------------------|
|-------------------|-------------------|
|-9---9-----------9-|-(9)---------------|
|-9---9-----------9-|-(9)--9-------9/---|
|-7---7----7------7-|-(7)--7-7-7-7-7/---|
|-------------7-7---|------7------------|
|
|             PM
|-------------------|-------------------|
|-------------------|-------------------|
|-9---9---(9)-----9-|-(9)--9------------|
|-9---9---(9)-----9-|-(9)--9-------9--x-|
|-7---7---(7)-----7-|-(7)--7-------7--x-|
|-------------0-0---|------0-------0----|

 naaa naaa naaaa naaa naaaaaaa
|-------------------------|--------------------------|
|-----------7--8p=7-------|------------9-10p=9-------|
|--------7-----------7----|---------9-----------9----|
|-----7-----------------7-|------9-----------------9-|
|--5----------------------|--7-----------------------|
|-------------------------|--------------------------|
|
|-------------------------|--------------------------|
|-------------------------|--------------------------|
|-14-14-14-14-14-14-14-14-|-14--14-14-14-14-14-14-14-|
|--x--x--x--x--x--x--x--x-|--x---x--x--x--x--x--x--x-|
|-12-12-12-12-12-12-12-12-|-12--12-12-12-12-12-12-12-|
|-------------------------|--------------------------|
|
|-------------------------|--------------------------|
|-------------------------|--------------------------|
|-------------------------|--------------------------|
|--7--7--7--7--7--7--x--9-|-(9)--9--9--9--9--9--x-13s|
|--5--5--5--5--5--5--0--7-|-(7)--7--7--7--7--7--0-11s|
|-------------------------|--------------------------|


|-----------------------|-----------------------------|
|-----------------------|-----------------------------|
|-----------------------|-----------------------------|
|----14-13s14---13s14---|-13s14---13s14------(14)\----|
|--x-12-11s12-0-11s12-0-|-11s12-0-11s12------(12)\----|
|-----------------------|-----------------------------|
|
|-----------------------|-----------------------------|
|-----------------------|-----------------------------|
|-14-14-13s14---13s14---|-13s14---13s14--14---14---14-|
|--x--x--xs=x----xs=x---|--xs=x----xs=x---x----x----x-|
|-12-12-11s12-0-11s12-0-|-11s12-0-11s12--12---12---12-|
|-----------------------|-----------------------------|
|
|-----------------------|-----------------------------|
|-----------------------|-----------------------------|
|-----------------------|-----------------------------|
|-14-14-13s14---13s14---|-13s14---13s14--14\----------|
|-12--0-11s12-0-11s12-0-|-11s12-0-11s12--12\----------|
|-----------------------|-----------------------------|


|-------------------------|--------------------------|
|-----------7--8p=7-------|------------9-10p=9-------|
|--------7-----------7----|---------9-----------9----|
|-----7-----------------7-|------9-----------------9-|
|--5----------------------|--7-----------------------|
|-------------------------|--------------------------|
|
|-------------------------|--------------------------|
|-------------------------|--------------------------|
|-14-14-14-14-14-14-14-14-|-14--14-14-14-14-14-14-14-|
|--x--x--x--x--x--x--x--x-|--x---x--x--x--x--x--x--x-|
|-12-12-12-12-12-12-12-12-|-12--12-12-12-12-12-12-12-|
|-------------------------|--------------------------|
|
|-------------------------|--------------------------|
|-------------------------|--------------------------|
|-------------------------|--------------------------|
|--7--7--7--7--7--7--x--9-|-(9)--9--9--9--9--9--x-13s|
|--5--5--5--5--5--5--0--7-|-(7)--7--7--7--7--7--0-11s|
|-------------------------|--------------------------|


|------------------------|---------------------------|
|------------------------|---------------------------|
|------------------------|---------------------------|
|-----14-13s14---13s14---|-13s14----13s14-15-16-17---|
|--x/-12-11s12-0-11s12-0-|-11s12--0-11s12-13-14-15---|
|------------------------|---------------------------|
|
|------------------------|---------------------------|
|------------------------|---------------------------|
|-14--14-13s14---13s14---|-13s14-14-14-14-15-16-17---|
|--x---x--xs=x----xs=x---|--xs=x--x--x--x--x--x--x---|
|-12--12-11s12-0-11s12-0-|-11s12-12-12-12-13-14-15---|
|------------------------|---------------------------|
|
|------------------------|---------------------------|
|------------------------|---------------------------|
|------------------------|---------------------------|
|-14--14-13s14---13s14---|-13s14----13s14-15-16-17---|
|-12---0-11s12-0-11s12-0-|-11s12--0-11s12-13-14-15---|
|------------------------|---------------------------|

Back to Verse

Chorus
LICK AND A PROMISE! He gave the ladies a LICK AND A PROMISE!
  PM---------------------------------------------------------------------
|----------------|------------------|-------------------|-------------------|
|----------------|------------------|-------------------|-------------------|
|----------------|------------------|-------------------|-------------------|
|-9------9-9-x-x-|-x-----9-11-9-x-9-|-(9)-9-----9-9-x-x-|-9-----9-11-9-x-9--|
|-7------7-7-x-x-|-x-----7--7-7-x-7-|-(7)-7-----7-7-x-x-|-x-----7--7-7-x-7--|
|----8-9---------|---8-9------------|-------8-9---------|---8-9-------------|
|
|----------------|------------------|-------------------|-------------------|
|----------------|------------------|-------------------|-------------------|
|----------------|------------9-9---|-------------------|-------------------|
|-9------9-9-----|-------9-11-9---9-|-(9)-9-----9-9-----|-------9-11-9---9--|
|-7------7-7-----|-------7--7-7---7-|-(7)-7-----7-7-----|-------7--7-7---7--|
|----8-9---------|---8-9------------|-------8-9---------|---8-9-------------|
|
|----------------|------------------|-------------------|-------------------|
|----------------|------------------|-------------------|-------------------|
|-9--x-9-9-9-x-x-|-x-x-x-x--x-x-x-9-|-(9)-9-x-9-9-9-x-x-|-x-x-x-x--x-x-x-9--|
|-9--x-9-9-9-x-x-|-x-x-x-x--x-x-x-9-|-(9)-9-x-9-9-9-x-x-|-x-x-x-x--x-x-x-9--|
|-7--x-7-7-7-x-x-|-x-x-x-x--x-x-x-7-|-(7)-7-x-7-7-7-x-x-|-x-x-x-x--x-x-x-7--|
|----------------|------------------|-------------------|-------------------|


   PM-----------------------------------
|-------------------|------------------|
|-------------------|------------------|
|-------------------|------------------|
|-(9)-9-----9-9-x-x-|-x-----9-11-9-x-9-|
|-(7)-7-----7-7-x-x-|-x-----7--7-7-x-7-|
|-------8-9---------|---8-9------------|
|
|-------------------|------------------|
|-------------------|------------------|
|-------------------|------------------|
|-(9)-9-----9-9-----|-------9-11-9---9-|
|-(7)-7-----7-7-----|-------7--7-7---7-|
|-------8-9---------|---8-9------------|
|
|-------------------|------------------|
|-------------------|------------------|
|-(9)-9-x-9-9-9-x-x-|-x-x-x-x--x-x-x-9-|
|-(9)-9-x-9-9-9-x-x-|-x-x-x-x--x-x-x-9-|
|-(7)-7-x-7-7-7-x-x-|-x-x-x-x--x-x-x-7-|
|-------------------|------------------|


 -----------------------------------------|
|-------------------|-------------------5-|
|-------------------|-------------------5-|
|-------------------|---------------------|
|-(9)-9-----9-9-x-x-|-9-----9-11---9------|
|-(7)-7-----7-7-x-x-|-x-----7--7---7-x----|
|-------8-9---------|---8-9---------------|
|
|-------------------|---------------------|
|-------------------|---------------------|
|-------------------|---------------------|
|-(9)-9-----9-9-----|-------9-11p9-9-9\---|
|-(7)-7-----7-7-----|-------7--7---7----0-|
|-------8-9---------|---8-9---------------|
|
|-------------------|---------------------|
|-------------------|---------------------|
|-(9)-9-x-9-9-9-x-x-|-x-x-x-x--x---x-x--9-|
|-(9)-9-x-9-9-9-x-x-|-x-x-x-x--x---x-x--9-|
|-(7)-7-x-7-7-7-x-x-|-x-x-x-x--x---x-x--7-|
|-------------------|---------------------|



 Guitar Chorus Fill Part thing gfhadsgjsdgjd
|----------5-5-------5-8p5-----|--8-8---------8---8------8---------|
|----------5-5-8pb10-----------|--8---11pb13-----11pb13-----8------|
|-----7pb9-----------------7h9-|----------------------------8-9s11-|
|------------------------------|-----------------------------------|
|------------------------------|-----------------------------------|
|------------------------------|-----------------------------------|
|
|------------------------------|-----------------------------------|
|------------------------------|-----------------------------------|
|------------------------------|-----------------------------------|
|-----6s===7---------------9s==|=10--------------------------------|
|--0--4s===5---6s====7-0---7s==|==8----9-----10-(10)----10-10------|
|------------0-4s====5---------|----0--7------8--(8)-----8--8------|
|
|------------------------------|-----------------------------------|
|------------------------------|-----------------------------------|
|------------------------------|-----------------------------------|
|------------------------------|-----------------------------------|
|------------------------------|-----------------------------------|
|------------------------------|-----------------------------------|


                                  
|-10-10-10-12b135-(12)------------=----|
|----10----------------12pb13r==(12)---|
|--------------------------------------|
|--------------------------------------|
|--------------------------------------|
|--------------------------------------|
|
|--------------------------------------|
|--------------------------------------|
|--------------------------------------|
|----11s12--------------------------9--|
|--0--9s10----------11s12-----------7--|
|-----------0--------9s10-------0------|
|
|--------------------------------------|
|--------------------------------------|
|-----------------------------------9--|
|-----------------------------------9--|
|-----------------------------------7--|
|--------------------------------------|


      
|--------12----12-12-------|--------------------|
|-(12)---12-14-12-12-------|-----x-x-14-14-x-14-|
|-----------14-------14\---|-----x-x-14-14-x-14-|
|--------------------14\---|--------------------|
|--------------------------|--------------------|
|--------------------------|--------------------|
|
|--------------------------|--------------------|
|--------------------------|--------------------|
|--------------------------|--------------------|
|--(9)-9--------9--9-------|-------9-11--9----9-|
|--(7)-7--------7--7-------|-------7--7--7----7-|
|---------8--9-------------|---8-9--------------|
|
|--------------------------|--------------------|
|--------------------------|--------------------|
|--(9)-9--x--9--9--9--x--x-|-x-x-x-x--x--x-x--9-|
|--(9)-9--x--9--9--9--x--x-|-x-x-x-x--x--x-x--9-|
|--(7)-7--x--7--7--7--x--x-|-x-x-x-x--x--x-x--7-|
|--------------------------|--------------------|


|-------------------------|--------------------|
|-(14)-14-x-14-14-12------|--------------------|
|-(14)-14-x-14-14-13------|--------------------|
|--------------------14s==|=2--------x-x-x--7--|
|-------------------------|----------x-x-x--0--|
|-------------------------|--------------------|
|
|-------------------------|--------------------|
|-------------------------|--------------------|
|-------------------------|--------------------|
|--(9)--9-------9--9------|-------9-11-9-9\----|
|--(7)--7-------7--7------|-------7--7-7----0--|
|---------8--9------------|---8-9--------------|
|
|-------------------------|--------------------|
|-------------------------|--------------------|
|--(9)--9-x--9--9--9--x-x-|-x-x-x-x--x-x-x-----|
|--(9)--9-x--9--9--9--x-x-|-x-x-x-x--x-x-x-----|
|--(7)--7-x--7--7--7--x-x-|-x-x-x-x--x-x-x-----|
|-------------------------|--------------------|

Re-intro
|-------------------|---------------------|------------------------|
|-------------------|---------------------|------------------------|
|-------------------|---------------------|------------------------|
|-(7)-7-----------9s|=10----------11s12---|---------13s14-15-16-17-|
|-(0)-4s5---6s7-0-7s|==8---9s10-0--9s10---|-11s12-0-11s12-13-14-15-|
|---------0-4s5-----|----0-7s=8---------0-|--9s10------------------|
|
|-------------------|---------------------|------------------------|
|-------------------|---------------------|------------------------|
|-------------------|---------------------|------------------------|
|-----6s7---------9s|=10----------11s12---|---------13s14-15-16-17-|
|--0--4s5---6s7-0-7s|==8---9s10-0--9s10---|-11s12-0-11s12-13-14-15-|
|---------0-4s5-----|----0-7s=8---------0-|--9s10------------------|
|
|-------------------|---------------------|------------------------|
|-------------------|---------------------|------------------------|
|-------------------|---------------------|------------------------|
|-------------------|-------------11s12---|---------13s14-15-16-17-|
|-------------------|--------10-0--9s10---|-11s12-0-11s12-13-14-15-|
|-------------------|---------8---------0-|--9s10------------------|


Verse 
|-----------------------|-----------------------|
|-----------------------|-----------------------|
|-----------------------|-----------------------|
|-(17)---17---17-17-x---|--x--17-17-17-17-17-x--|
|-(15)---15---15-15-x---|--x--15-15-15-15-15-x--|
|-----------------------|-----------------------|
|
|-----------------------|-----------------------|
|-----------------------|-----------------------|
|-----------------------|-----------------------|
|-(17)\---5----5------5-|-(5)-----5--------5-5--|
|-(15)\---3-0--3----0-3-|-(3)--0--3-----0--3-3--|
|-----------------------|-----------------------|
|
|-----------------------|-----------------------|
|-----------------------|-----------------------|
|-----------------------|-----------------------|
|-(17)\---5----5------5-|-(5)-----5--------5-5--|
|-(15)\---3-0--3----0-3-|-(3)--0--3-----0--3-3--|
|-----------------------|-----------------------|


|-----------------------|---------------------|
|-----------------------|---------------------|
|-----------------------|---------------------|
|-x-15-15-15-15--15-x---|-x-15-x-x-15--15-x---|
|-x-13-13-13-13--13-x---|-x-13-x-x-13--13-x---|
|-----------------------|---------------------|
|
|-----------------------|---------------------|
|-----------------------|---------------------|
|-----------------------|---------------------|
|----3--------------3---|--------3-(3)--------|
|-0--1--0---------0-1-0-|------0-1-(1)--0-----|
|----------3-(3)--------|-3---------------3---|
|
|-----------------------|---------------------|
|-----------------------|---------------------|
|-----------------------|---------------------|
|----3------------3-3---|------3-3-(3)--3-----|
|-0--1--0---------0-1-0-|------0-1-(1)--0-----|
|----------3-(3)--------|-3---------------3---|

|----------------------|---------------------|
|----------------------|---------------------|
|----------------------|---------------------|
|-x-17-17-17-17-17-x---|--x--17-x-x-17-17-x--|
|-x-15-15-15-15-15-x---|--x--15-x-x-15-15-x--|
|----------------------|---------------------|
|
|----------------------|---------------------|
|----------------------|---------------------|
|----------------------|---------------------|
|----5--5-----5------5-|-(5)----5-------5-5--|
|-0--3--3--0--3----0-3-|-(3)--0-3----0--3-3--|
|----------------------|---------------------|
|
|----------------------|---------------------|
|----------------------|---------------------|
|----------------------|---------------------|
|----5--5-----5------5-|-(5)----5-------5-5--|
|-0--3--3--0--3----0-3-|-(3)--0-3----0--3-3--|
|----------------------|---------------------|


|-----------------------|---------------------|
|-----------------------|---------------------|
|-----------------------|---------------------|
|-x-15-15-15-15--15-x---|-x-15-x-x-15--15-x---|
|-x-13-13-13-13--13-x---|-x-13-x-x-13--13-x---|
|-----------------------|---------------------|
|
|-----------------------|---------------------|
|-----------------------|---------------------|
|-----------------------|---------------------|
|----3--------------3---|--------3-(3)----3---|
|-0--1--0---------0-1-0-|------0-1-(1)--0-1---|
|----------3-(3)--------|-3-------------------|
|
|-----------------------|---------------------|
|-----------------------|---------------------|
|-----------------------|---------------------|
|----3------------3-3---|------3-3-(3)--3-----|
|-0--1--0---------0-1-0-|------0-1-(1)--0-----|
|----------3-(3)--------|-3---------------3---|


Pre Chorus
  PM      PM      PM        PM
|----------------------|----------------------------|
|----------------------|----------------------------|
|----------------------|----------------------------|
|---13s14---13s14---13s|=14---13s14-(14)-14----14\--|
|-0-11s12-0-11s12-0-11s|=12-0-11s12-(12)-12----12\--|
|----------------------|----------------------------|
|
| PM      PM      PM        PM
|----------------------|----------------------------|
|----------------------|----------------------------|
|----------------------|----------------------------|
|---13s14---13s14---13s|=14---13s14-(14)-14-14-14\--|
|-0-11s12-0-11s12-0-11s|=12-0-11s12-(12)-12-12-12\--|
|----------------------|----------------------------|
|
|----------------------|----------------------------|
|----------------------|----------------------------|
|----------------------|----------------------------|
|---13s14---13s14---13s|=14---13s14-(14)------------|
|-0-11s12-0-11s12-0-11s|=12-0-11s12-(12)------------|
|----------------------|------------------------0---|



            PM|
|-----------------|------------------|
|-----------------|------------------|
|-9--9--(9)-----9-|-(9)---9--9-9-9---|
|-9--9--(9)-x---9-|-(9)---9--9-9-9---|
|-7--7--(7)-x---7-|-(7)---7--7-7-7/--|
|-----------0-0---|-------7----------|
|
|-----------------|------------------|
|-----------------|------------------|
|-9--9--(9)-----9-|-(9)---9--9-9-9---|
|-9--9--(9)-----9-|-(9)-9-9--9-9-9---|
|-7--7--(7)-7---7-|-(7)-7-7--7-7-7/--|
|-----------7-7---|-------7--7-------|
|
|           PM|
|-----------------|------------------|
|-----------------|------------------|
|-9--9--(9)-----9-|-(9)---9--9-9-9/--|
|-9--9--(9)-----9-|-(9)---9--9-9-9/--|
|-7--7--(7)-----7-|-(7)---7--7-7-7/--|
|-----------0-0---|-------7----------|


  PM      PM      PM        PM
|----------------------|----------------------------|
|----------------------|----------------------------|
|----------------------|----------------------------|
|---13s14---13s14---13s|=14---13s14-(14)-14----14\--|
|-0-11s12-0-11s12-0-11s|=12-0-11s12-(12)-12----12\--|
|----------------------|----------------------------|
|
| PM      PM      PM        PM
|----------------------|----------------------------|
|----------------------|----------------------------|
|----------------------|----------------------------|
|---13s14---13s14---13s|=14---13s14-(14)-14-14-14\--|
|-0-11s12-0-11s12-0-11s|=12-0-11s12-(12)-12-12-12\--|
|----------------------|----------------------------|
|
|----------------------|----------------------------|
|----------------------|----------------------------|
|----------------------|----------------------------|
|---13s14---13s14---13s|=14---13s14-(14)------------|
|-0-11s12-0-11s12-0-11s|=12-0-11s12-(12)------------|
|----------------------|------------------------0---|

              PM|
|-------------------|-------------------|
|-------------------|-------------------|
|-9---9---(9)-----9-|-(9)--9---9-9-9s=7-|
|-9---9---(9)-----9-|-(9)--9---9-9-9s=7-|
|-7--(7)--(7)-----7-|-(7)--7---7-7-7s=5-|
|-------------0-0---|-------------------|
|
|-------------------|-------------------|
|-------------------|-------------------|
|-9---9-----------9-|-(9)---------------|
|-9---9-----------9-|-(9)--9-------9/---|
|-7---7----7------7-|-(7)--7-7-7-7-7/---|
|-------------7-7---|------7------------|
|
|             PM|
|-------------------|-------------------|
|-------------------|-------------------|
|-9---9---(9)-----9-|-(9)--9------------|
|-9---9---(9)-----9-|-(9)--9-------9--x-|
|-7---7---(7)-----7-|-(7)--7-------7--x-|
|-------------0-0---|------0-------0----|


Naaa naaa Chorus
|-------------------------|--------------------------|
|-----------7--8p=7-------|------------9-10p=9-------|
|--------7-----------7----|---------9-----------9----|
|-----7-----------------7-|------9-----------------9-|
|--5----------------------|--7-----------------------|
|-------------------------|--------------------------|
|
|-------------------------|--------------------------|
|-------------------------|--------------------------|
|-14-14-14-14-14-14-14-14-|-14--14-14-14-14-14-14-14-|
|--x--x--x--x--x--x--x--x-|--x---x--x--x--x--x--x--x-|
|-12-12-12-12-12-12-12-12-|-12--12-12-12-12-12-12-12-|
|-------------------------|--------------------------|
|
|-------------------------|--------------------------|
|-------------------------|--------------------------|
|-------------------------|--------------------------|
|--7--7--7--7--7--7--x--9-|-(9)--9--9--9--9--9--x-13s|
|--5--5--5--5--5--5--0--7-|-(7)--7--7--7--7--7--0-11s|
|-------------------------|--------------------------|


|-----------------------|-----------------------------|
|-----------------------|-----------------------------|
|-----------------------|-----------------------------|
|----14-13s14---13s14---|-13s14---13s14------(14)\----|
|--x-12-11s12-0-11s12-0-|-11s12-0-11s12------(12)\----|
|-----------------------|-----------------------------|
|
|-----------------------|-----------------------------|
|-----------------------|-----------------------------|
|-14-14-13s14---13s14---|-13s14---13s14--14---14---14-|
|--x--x--xs=x----xs=x---|--xs=x----xs=x---x----x----x-|
|-12-12-11s12-0-11s12-0-|-11s12-0-11s12--12---12---12-|
|-----------------------|-----------------------------|
|
|-----------------------|-----------------------------|
|-----------------------|-----------------------------|
|-----------------------|-----------------------------|
|-14-14-13s14---13s14---|-13s14---13s14--14\----------|
|-12--0-11s12-0-11s12-0-|-11s12-0-11s12--12\----------|
|-----------------------|-----------------------------|



|-------------------------|--------------------------|
|-----------7--8p=7-------|------------9-10p=9-------|
|--------7-----------7----|---------9-----------9----|
|-----7-----------------7-|------9-----------------9-|
|--5----------------------|--7-----------------------|
|-------------------------|--------------------------|
|
|-------------------------|--------------------------|
|-------------------------|--------------------------|
|-14-14-14-14-14-14-14-14-|-14--14-14-14-14-14-14-14-|
|--x--x--x--x--x--x--x--x-|--x---x--x--x--x--x--x--x-|
|-12-12-12-12-12-12-12-12-|-12--12-12-12-12-12-12-12-|
|-------------------------|--------------------------|
|
|-------------------------|--------------------------|
|-------------------------|--------------------------|
|-------------------------|--------------------------|
|--7--7--7--7--7--7--x--9-|-(9)--9--9--9--9--9--x-13s|
|--5--5--5--5--5--5--0--7-|-(7)--7--7--7--7--7--0-11s|
|-------------------------|--------------------------|


|------------------------|--------------------------|
|------------------------|--------------------------|
|------------------------|--------------------------|
|-----14-13s14---13s14---|-13s14----13s14-15-16-17--|
|--x/-12-11s12-0-11s12-0-|-11s12--0-11s12-13-14-15--|
|------------------------|--------------------------|
|
|------------------------|--------------------------|
|------------------------|--------------------------|
|-14--14-13s14---13s14---|-13s14-14-14-14-15-16-17--|
|--x---x--xs=x----xs=x---|--xs=x--x--x--x--x--x--x--|
|-12--12-11s12-0-11s12-0-|-11s12-12-12-12-13-14-15--|
|------------------------|--------------------------|
|
|------------------------|--------------------------|
|------------------------|--------------------------|
|------------------------|--------------------------|
|-14--14-13s14---13s14---|-13s14----13s14-15-16-17--|
|-12---0-11s12-0-11s12-0-|-11s12--0-11s12-13-14-15--|
|------------------------|--------------------------|


   Outro Solo
   
|------------------------|---------------------|
|------------------------|---------------------|
|---------5p3---3--------|-----5p3---3---------|
|---(17)\---------\5-----|-------------\5------|
|---(15)\-----3------6px-|--x------3------6\---|
|------------------------|-------------------0-|
|
|------------------------|---------------------|
|------------------------|---------------------|
|------------------------|---------------------|
|---------5-5---5------5-|-(5)---5------5-5----|
|-----0---3-3-0-3----0-3-|-(3)-0-3---0--3-3----|
|------------------------|---------------------|
|
|------------------------|---------------------|
|------------------------|---------------------|
|------------------------|---------------------|
|---------5-5---5------5-|-(5)---5------5-5----|
|-----0---3-3-0-3----0-3-|-(3)-0-3---0--3-3----|
|------------------------|---------------------|



|-------------------|------------------|
|-------------------|------------------|
|-------------------|------------------|
|---3---------3-3---|------3-(3)-------|
|-0-1-0-------0-1-0-|----0-1-(1)-0-1---|
|-------3-(3)-------|-3----------------|
|
|-------------------|------------------|
|-------------------|------------------|
|-------------------|------------------|
|---3-----------3---|------3-(3)---3---|
|-0-1-0-------0-1-0-|----0-1-(1)-0-1---|
|-------3-(3)-------|-3----------------|
|
|-------------------|------------------|
|-------------------|------------------|
|-------------------|------------------|
|---3---------3-3---|----3-3-(3)-3-----|
|-0-1-0-------0-1-0-|----0-1-(1)-0-----|
|-------3-(3)-------|-3------------3---|



|-----1-----0-------|--------------------|-------------------|-----------------|
|-------1-----1-----|--------------------|-------------------|-----------------|
|-0h2-----2-----2---|-----0-----------5--|-------3-(3)-------|-3--3-3-(3)-3-3--|
|-------------------|-----x-----------5--|---------------2-3-|-3--3-3-(3)-3-3--|
|-----------------3-|-(3)-3---5h=7-------|-4-4-4-------x-----|-----------------|
|-------------------|--------------------|-------------------|-----------------|
|
|-------------------|--------------------|-------------------|-----------------|
|-------------------|--------------------|-------------------|-----------------|
|-------------------|--------------------|-------------------|-----------------|
|-7---7-5-5-5-5-5-5-|--7--7-5-5-(5)-5-5--|---3-----------3---|------3-(3)---3--|
|-5---5-3-3-3-3-3-3-|--5--5-3-3-(3)-3-3--|-0-1-0-------0-1-0-|----0-1-(1)-0-1--|
|-------------------|--------------------|-------3-(3)-------|-3---------------|
|
|-------------------|--------------------|-------------------|-----------------|
|-------------------|--------------------|-------------------|-----------------|
|-------------------|--------------------|-------------------|-----------------|
|-5---5-5-5-5-5-5-5-|--5--5-5-5--5--5-5--|---3-3-------3-3-3-|------3--3--3----|
|-3---3-3-3-3-3-3-3-|--3--3-3-3--3--3-3--|-0-1-0----0--0-1-0-|----0-1--1--0----|
|-------------------|--------------------|-------3-----------|-3------------0--|



  PM------------          PM             PM--------           PM
|-----------------|-----------------|-------------------|------------------|
|-4-----4-----4---|-4---4-----4---4-|-(4)-----4-----4---|-4---4-----4---4--|
|-3-----3-----3---|-3---3-----3---3-|-(3)-----3-----3---|-3---3-----3---3--|
|-----------------|-----------------|-------------------|------------------|
|-----3---3-3---3-|---------3-------|-------3---3-3---3-|---------3--------|
|-----------------|-----------------|-------------------|------------------|
|
|-----------------|-----------------|-------------------|------------------|
|-----------------|-----------------|-------------------|------------------|
|-----------------|-----------------|-------------------|------------------|
|-----------------|-----------------|-------------------|------------------|
|-5-5-5-5-5-5-5-5-|-5-5-5-5-5-5-5-5-|--5--5-5-5-5-5-5-5-|-5-5-5-5-5-5-5-5--|
|-3-3-3-3-3-3-3-3-|-3-3-3-3-3-3-3-3-|--3--3-3-3-3-3-3-3-|-3-3-3-3-3-3-3-3--|
|
|-----------------|-----------------|-------------------|------------------|
|-----------------|-----------------|-------------------|------------------|
|-----------------|-----------------|-------------------|------------------|
|-5-5-5-5-5-5-5-5-|-5-5-5-5-5-5-5-5-|--0----5-5-5-5-5-5-|-5-5-5-5-5-5-5-5--|
|-3-3-3-3-3-3-3-3-|-3-3-3-3-3-3-3-3-|--0----3-3-3-3-3-3-|-3-3-3-3-3-3-3-3--|
|-----------------|-----------------|-------3---3-3-3---|------------------|



        PM--------           PM
|-------------------|-----------------|-----------------|
|-(4)-----4-----4---|-4---4-----4---4-|-----------------|
|-(3)-----3-----3---|-3---3-----3---3-|-----------------|
|-------------------|-----------------|-----------------|
|-------3---3-3---3-|---------3-------|-3-3-3-3-3-3-3-3-|
|-------------------|-----------------|-----------------|
|
|-------------------|-----------------|-----------------|
|-------------------|-----------------|-----------------|
|-------------------|-----------------|-----------------|
|-------------------|-----------------|-----------------|
|--5--5-5-5-5-5-5-5-|-5-5-5-5-5-5-5-5-|-5-5-5-5-5-5-5-5-|
|--3--3-3-3-3-3-3-3-|-3-3-3-3-3-3-3-3-|-3-3-3-3-3-3-3-3-|
|
|-------------------|-----------------|-----------------|
|-------------------|-----------------|-----------------|
|-------------------|-----------------|-----------------|
|-------------------|-----------------|-----------------|
|--5--5-5-5-5-5-5-5-|-5-5-5-5-5-5-5-5-|-5-5-5-5-5-5-5-5-|
|--3--3-3-3-3-3-3-3-|-3-3-3-3-3-3-3-3-|-3-3-3-3-3-3-3-3-|

fade out

Enjoy!





Comments


Popular Aerosmith tabs & chords
Last Child 2 Bass Tabs
Milkcow Blues Bass Tabs
Same Old Song And Dance 2 Bass Tabs
Cryin' Chords
Hole In My Soul 1 Chords
Pink Drum Tabs
Come Together Tabs
Living On The Edge Tabs
She On Fire Tabs
Train Kept Rollin Unplugged Tabs


Song lyrics



↑ Back to top | Tablatures and chords are parodies/interpretations of the original songs. You may use it for private study, scholarship, research or language learning purposes only
© 2014 AZChords.com Contact us | Privacy policy | DMCA | Add/correct tabs | Request tabs | Top 50 tabs