» » »

Aerosmith, Last Child Tabs (ver.6)

Artists:  A B C D E F G H I J K L M N O P Q R S T U V W X Y Z # 

Last Child Tabs (ver.6)

Aerosmith Tabs
 Rating:
4/5 (4 votes)
Last Child lessons Tabs too difficult? Try these video lessons and learn fast
1
                Tune down Half A Step

   Intro:       Slowly
|------1-0-1---------1-0-1---------3-0-3---------3-0-3------|
|----3-------3-----3-------3-----3-------3-----3-------3----|
|--2-----------2-2-----------2-0-----------0-0-----------0--|
|-----------------------------------------------------------|
|-----------------------------------------------------------|
|-----------------------------------------------------------|
 
|--------4-0-4---------4-0-4-5-6--|
|------3-------3-----3-----3-4-5--|
|--2/4-----------4-4-------4-5-6--|
|---------------------------------|
|---------------------------------|
|---------------------------------|

|-----------------------------------|
|-----------------------------------|
|-----------------------------------|
|------------------------2----------|
|--2---4----5----4-------------4h5--|
|-----------------------------------|

Verse Position
Rhythym 1

Take me back to a southern Tallahassee
|-----------------------------------||-----------------------------------|
|-----------------------------------||-----------------------------------|
|-----------------------------------||-----------------------------------|
|------------------------2----------||------------------------2----------|
|--2---4----5----4----x----xx--4h5--||--2---4----5----4----x----xx--4h5--|
|-----------------------------------||-----------------------------------|




Verse




Rhythm 2
 Yes sir no  sir Don't come close to my
|-----------------------------------------|
|----------------------------------------o|
|-----------------------------------------|
|-5-/-7---4-/-5----2--h-4-----0-2-4-------|
|-0-------0--------0----------0-0-0------o|
|-----------------------------------------|

Second Verse


Chorus
This is how i play it and it sounds pretty much like it
|----------------------------------------|
|-7h8p7p5---5--------2h3p2p0-------------|
|---------7---7~-------------2--4~~--0---|
|----------------------------------------|
|----------------------------------------|
|----------------------------------------|

|------------------------|
|-----Repeat 2 times-----|
|------------------------|
|-----------------------2|
|--2--4--5--4--2--4--5---|
|------------------------|

Solo

|-----------------------------------------------|
|----------------------------------------15b17--|
|-13-14-13-14-13-14-13-14-13-14-13-14s13--------|
|-12-12-12-12-12-12-12-12-12-12-12----12--------|
|-----------------------------------------------|
|-----------------------------------------------|

|---------------------------------------------|
|---------------------------------------15b17-|
|-13-14-13-14-13-14-13-14-13-14-13-14---------|
|-12-12-12-12-12-12-12-12-12-12-12-12---------|
|---------------------------------------------|
|---------------------------------------------|

|-10s12---------12-12----12----------------12-----------------------|
|-------15b17------15b17----15p12-------12----12--------------------|
|---------------------------------14b15----------14-12b12.5---------|
|-------------------------------------------------0---------14--14--|
|-------------------------------------------------------------------|
|-------------------------------------------------------------------|

|--------------------------------------------|
|------------------------------------------9-|
|-----------9-9-9----9-12p9----9---9-------9-|
|-14s(4)s11-------11--------11----------11---|
|--------------------------------------------|
|--------------------------------------------|

|-------15----17b19----(17)r(17)-15-----------17b19==(17)r-|
|----------15-----------------------15-15-15---------------|
|-12s16----------------------------------------------------|
|----------------------------------------------------------|
|----------------------------------------------------------|
|----------------------------------------------------------|

|-17b19----(17)r(17)p15----15----------------------------------|
|-----------------------15----17-17-15h17-15-15----------------|
|-----------------------------------------16----16-14s13-------|
|--------------------------------------------------------14----|
|--------------------------------------------------------------|
|--------------------------------------------------------------|

|-----------------------------------------------------|
|-15-14--------15p=14------15p14----15p14----15p14----|
|-------14-------------14--------14-------14-------14-|
|-----------------------------------------------------|
|-----------------------------------------------------|
|-----------------------------------------------------|

|---------------------------------------|
|-12--------------------------12-14--15-|
|------12b14------------12h13-----------|
|------------14-14-(14)-----------------|
|---------------------------------------|
|---------------------------------------|

|----------------------------------------------------|
|---12-14-15---x-15p14p12----12----------------------|
|-------------------------12----12b13----------14p12-|
|---------------------------------------14-12--------|
|----------------------------------------------------|
|----------------------------------------------------|

|------------------------------------|-----------------------------------||
|-15b17==(15)r===(15)b17==(15)-------|-(15)-------------------(15)r---sx\||
|------------------------------------|----------------------------xsx\---||
|------------------------------------|-----------------------------------||
|------------------------------------|-----------------------------------||
|------------------------------------|-----------------------------------||

Outro

|----------------------------------------|-------------------------------|
|---------15b17(15)r-------15p12---------|---------------x/--------------|
|-----------------------------------12b13|(12)r---------x/---------------|
|----------------------------------------|-------14\-----x/--------------|
|----------------------------------------|-------------------------------|
|----------------------------------------|-------------------------------|

|-----------------------------------------------------------|
|-x-----------------------12b13(12)r---12-12--------------|
|-x-12b125(12)r---12-12b14(12)r---12-12b14(12)r--------|
|-x-12b125(12)r---12--------------------------------14-14--|
|-----------------------------------------------------------|
|-----------------------------------------------------------|

|----------------------------|
|----------------------------|
|----------------------------|
|-(14)\----------------------|
|----------------------------|
|----------------------------|

|---------------12----------15b17-15--|-------------------------|
|-----15b17--------15-12--------------|-------------------------|
|------------------------12-----------|-------------------------|
|-------------------------------------|-------------------------|
|-------------------------------------|-------------------------|
|-------------------------------------|-------------------------|

|---15-15-15-15-15-15-15-15-15-15-15-15-15--15-|
|----x--x--x--x--x--x--x--x--x--x--x--x--x---x-|
|---12-12-12-12-12-12-12-12-12-12-12-12-12--12-|
|----------------------------------------------|
|----------------------------------------------|
|----------------------------------------------|

I'm dreaming tonight, I'm living back home 
Right!
Yeah...yeah 

Take me back to a south Tallahassee 
Down cross the bridge to my sweet sassafrassy 
Can't stand up on my feet in the city 
Gotta get back to the real nitty gritty 

Yes sir, no sir 
Don't come close to my 
Home sweet home 
Can't catch no dose 
Of my hot tail poon tang sweetheart 
Sweathog ready to make a silk purse 
With her face in her beer 

Home sweet home 

Get out in the field 
Put the mule in the stable 
Ma she's a cookin' 
Put the eats on the table 
Hate's in the city 
And my love's in the meadow 
Hands on the plow 
And my feets in the ghetto 

Stand up, sit down 
Don't do nothing 
It ain't no good when boss man's 
Stuffin' down their throats 
For paper notes 
And their babies cry 
While cities lie at their feet
When you're rockin' the street 

Home sweet home 

Mama, take me home sweet home 

I was the last child 
I'm just a punk in the street 
[Repeat]
            
Submit corrections

comments powered by Disqus
↑ Back to top | Aerosmith Tabs for Last Child. Lyrics for acoustic guitar and electric guitar. 1 Tablatures and chords are parodies/interpretations of the original songs. You may use it for private study, scholarship, research or language learning purposes only