>
 >
Last Child 3

Last Child 3 Guitar Tabs

Aerosmith - Last Child 3 chords, tabs, tablatures, lyrics

Guitar lessons | Add/correct | Request | Top 50 tabs Artists:  A B C D E F G H I J K L M N O P Q R S T U V W X Y Z 0-9

Last Child 3 Guitar Tabs – Aerosmith

CD, Sheet music, Poster

Do you like Last Child 3? Share with your friends now
Bass TabsBass Tabs v2ChordsTabsTabs v2Tabs v3Tabs v4Tabs v5Tabs v6
Gtr I (Eb Ab Db Gb Bb Eb) - 'Brad Whitford - Rhythm w/dist'
Gtr II (Eb Ab Db Gb Bb Eb) - 'Joe Perry - Lead / Rhythm w/dist'
Gtr III (Eb Ab Db Gb Bb Eb) - 'Joe Perry - Lead / Rhythm w/dist'

Intro
  Q=69
 4/4
  Gtr I
  E E E E +E  E E E   E E E E +E  E E E   E E E E +E  E E E
|-------0-(0)-------|-------0-(0)-------|-------0-(0)--------|
|-----6-------6-----|-----6-------6-----|-----8-------8------|
|---7-----------7---|---7-----------7---|---7-----------7----|
|-7---------------7-|-7---------------7-|-5---------------5--|
|-------------------|-------------------|--------------------|
|-------------------|-------------------|--------------------|


  E E E E +E  E E E   E E E E +E  E E E   E E E E +E  E  E  E
|-------0-(0)-------|-------0-(0)-------|-------0-(0)---------||
|-----8-------8-----|-----9-------9-----|-----9-------9-10-11-||
|---7-----------7---|---7-----------7---|---7---------7--8--9-||
|-5---------------5-|-9---------------9-|-9-----------9-10-11-||
|-------------------|-------------------|---------------------||
|-------------------|-------------------|---------------------||


 Verse
  Faster Q=84
  Gtr I
  PM|                 ~~   PM|                 ~~   PM|                 ~~
  S S e e e e   S S S E.   S S e e e e   S S S E.   S S e e e e   S S S E.
|------------------------|------------------------|-------------------------|
|------------------------|------------------------|-------------------------|
|------------------------|------------------------|-------------------------|
|---------------------2--|---------------------2--|---------------------2---|
|-2-2-4-5-4-2---4p2-5----|-2-2-4-5-4-2---4p2-5----|-2-2-4-5-4-2---4p2-5-----|
|-0-0--------------------|-0-0--------------------|-0-0---------------------|
|-Rhy Fig 1                         end Rhy Fig 1-|
|
| Gtr II
|           PM        ~~             PM        ~~             PM        ~~
| S S e e e S S E   S E.   S S e e e S S E   S E.   S S e e e S S E   S E.
|---7---------7----------|-7-7---------7----------|---7---------7-----------|
|---7---------7----------|-7-7---------7----------|---7---------7-----------|
|------------------------|------------------------|-------------------------|
|------------------------|------------------------|-------------------------|
|-----4-5-4-----4---5-7--|-----4-5-4-----4---5-7--|-----4-5-4-----4---5-7---|
|-0---------0------------|-----------0------------|-0---------0-------------|
|-Rhy Fig 1A                       end Rhy Fig 1A-|

  PM|                 ~~     PM|                 ~~   PM|                 ~~
  S S e e e e   S S S E.     S S e e e e   S S S E.   S S e e e e   S S S E.
|------------------------||-------------------------|-------------------------|
|------------------------||o------------------------|-------------------------|
|------------------------||-------------------------|-------------------------|
|---------------------2--||----------------------2--|---------------------2---|
|-2-2-4-5-4-2---4p2-5----||o-2-2-4-5-4-2---4p2-5----|-2-2-4-5-4-2---4p2-5-----|
|-0-0--------------------||--0-0--------------------|-0-0---------------------|
|
|           PM        ~~               PM        ~~             PM        ~~
| S S e e e S S E   S E.     S S e e e S S E   S E.   S S e e e S S E   S E.
|-7-7---------7----------||----7---------7----------|-7-7---------7-----------|
|-7-7---------7----------||o---7---------7----------|-7-7---------7-----------|
|------------------------||-------------------------|-------------------------|
|------------------------||-------------------------|-------------------------|
|-----4-5-4-----4---5-7--||o-----4-5-4-----4---5-7--|-----4-5-4-----4---5-7---|
|-----------0------------||--0---------0------------|-----------0-------------|

Rhy Fig 1 + 1A x3


 Pre-Chorus
  Gtrs I, II
  E E  E  e E e  S  S  S S   +E  E  E  e E e  S  S  S S
|--------------------------|----------------------------|
|--------------------------|----------------------------|
|--------------------------|----------------------------|
|-5-7--4--5-2-4--0--2--4-5-|-(5)-7--4--5-2-4--0--2--4-5-|
|-0-0--0--0-0-0--0--0--0-0-|-(0)-0--0--0-0-0--0--0--0-0-|
|--------------------------|----------------------------|
|
| Gtr III
| Q    E  E Q    s  s  e      Q     E  E Q    s  s  e
|-----12-15-----11-11-11---|-------12-15-----11-11-11---|
|-----12-15-----11-11-11---|-------12-15-----11-11-11---|
|-----12--------11-11-11---|-------12--------11-11-11---|
|--------------------------|----------------------------|
|--------------------------|----------------------------|
|--------------------------|----------------------------|


  +E  E  E  e E e  S  S  S S   +E  E  E     e E  e     S  S S S
|----------------------------|----------------------------------||
|----------------------------|----------------------------------||
|----------------------------|----------------------------------||
|-(5)-7--4--5-2-4--0--2--4-5-|-(5)-7--4-----5-2--4-----0--2-4-5-||
|-(0)-0--0--0-0-0--0--0--0-0-|-(0)-0--0-----0-0--0-----0--0-0-0-||
|----------------------------|----------------------------------||
|
|  Q     E  e Q    s  s  e      Q     S  S  e E.    S  S  S E
|-------12-12-----11-11-11---|-------12-12-12------11-11-12-----||
|-------12-12-----11-11-11---|-------12-12-12------11-11-12-----||
|-------12-12-----11-11-11---|-------12-12-12------11-11-12-----||
|----------------------------|----------------------------------||
|----------------------------|----------------------------------||
|----------------------------|----------------------------------||


 Chorus
 Rhy Fig 1 + 1A


                      ~~~~~
  E S     +S  +S   E. Q  Q    E S     +S  +S   E. E q  E
|---------------------------|----------------------------|
|---------------------------|----------------------------|
|---9b11==(9)r(9)p=7--9--7--|----------------------------|
|---0-----(0)-(0)-(0)-0--0--|---9b11==(9)r(9)p=7----9--5-|
|---------------------------|---0-----(0)-(0)-(0)---0--0-|
|---------------------------|----------------------------|
|-Riff A                                      end Riff A-|

                          1.                          2.
  Gtr I
  PM|                 ~~   PM|                 ~~     PM|                 ~~
  S S e e e e   S S S E.   S S e e e e   S S S E.     S S e e e e   S S S E.
|------------------------|-------------------------||-------------------------||
|------------------------|------------------------o||-------------------------||
|------------------------|-------------------------||-------------------------||
|---------------------2--|---------------------2---||---------------------2---||
|-2-2-4-5-4-2---4p2-5----|-2-2-4-5-4-2---4p2-5----o||-2-2-4-5-4-2---4p2-5-----||
|-0-0--------------------|-0-0---------------------||-0-0---------------------||
|
| Gtr II
|           PM        ~~             PM        ~~               PM        ~~
| S S e e e S S E   S E.   S S e e e S S E   S E.     S S e e e S S E   S E.
|---7---------7----------|-7-7---------7-----------||-7-7---------7-----------||
|---7---------7----------|-7-7---------7----------o||-7-7---------7-----------||
|------------------------|-------------------------||-------------------------||
|------------------------|-------------------------||-------------------------||
|-----4-5-4-----4---5-7--|-----4-5-4-----4---5-7--o||-----4-5-4-----4---5-7---||
|-0---------0------------|-----------0-------------||-----------0-------------||


 Guitar Solo
w/Rhy Fig 1 x3
  Gtr II
   PM---------------------------|         ~~~~~   PM---------------------------------|
   S  S  S  S  S  S  S  S  S  S  S  a  S  Q        S  S  S  S  S  S  S  S  S  S  S  S S  E.
|-----------------------------------------------|---------------------------------------------|
|----------------------------------------15b17--|---------------------------------------15b17-|
|-13-14-13-14-13-14-13-14-13-14-13-14s13--------|-13-14-13-14-13-14-13-14-13-14-13-14-x-------|
|-12-12-12-12-12-12-12-12-12-12-12----12--------|-12-12-12-12-12-12-12-12-12-12-12-12-x-------|
|-----------------------------------------------|---------------------------------------------|
|-----------------------------------------------|---------------------------------------------|


                                   ~~~~~                         ~~
   a  S  E       S  E     S  T  T  T     T  S  S  S  S       S   E
|-10s12---------12-12----12----------------12-----------------------|
|-------15b17------15b17----15p12-------12----12--------------------|
|---------------------------------14b15----------14-12b12.5---------|
|-------------------------------------------------0---------14--14--|
|-------------------------------------------------------------------|
|-------------------------------------------------------------------|


                ~              ~~~~~~
   a  S   S S S E  S S  T T  S E   E     S S
|--------------------------------------------|
|------------------------------------------9-|
|-----------9-9-9----9-12p9----9---9-------9-|
|-14s(4)s11-------11--------11----------11---|
|--------------------------------------------|
|--------------------------------------------|



  S  S  S  S  Q        +S   +S   S  S  S  S   S      +S
|-------15----17b19====(17)r(17)-15-----------17b19==(17)r-|
|----------15-----------------------15-15-15---------------|
|-12s16----------------------------------------------------|
|----------------------------------------------------------|
|----------------------------------------------------------|
|----------------------------------------------------------|

                               ~~
   E         a   +S.  T  S  S  E  S  T  T  S  S  S  S  S  S
|-17b19====(17)r(17)p15----15----------------------------------|
|-----------------------15----17-17-15h17-15-15----------------|
|-----------------------------------------16----16-14s13-------|
|--------------------------------------------------------14----|
|--------------------------------------------------------------|
|--------------------------------------------------------------|


w/Riff A
  Gtr II
   S  S  S      S   S   S   S  S  E  S  S  S  S  S  S
|-----------------------------------------------------|
|-15-14--------15p=14------15p14----15p14----15p14----|
|-------14-------------14--------14-------14-------14-|
|-----------------------------------------------------|
|-----------------------------------------------------|
|-----------------------------------------------------|
|
| Gtr III
|  S  S  S      S   S   S   S  S  E  S  S  S  S  S  S
|-14-12--------14p=12------14p12----14p12----14p12----|
|-------14-------------14--------14-------14-------14-|
|-----------------------------------------------------|
|-----------------------------------------------------|
|-----------------------------------------------------|
|-----------------------------------------------------|

   E.             a   +S       +Q       +E.    +S    S       S   e
|--------------------------------------------------------------------|
|-17b19=========(17)r(17)b21==(17)-----(17)r==(17)---x------15s=14---|
|--------------------------------------------------------------------|
|--------------------------------------------------------------------|
|--------------------------------------------------------------------|
|--------------------------------------------------------------------|
|
|
|  E      S           +S       +Q       +Q          +E          +E
|-12-----14b16=======(14)-----(14)-----(14)r=======(14)b15=====(14)r-|
|--------------------------------------------------------------------|
|--------------------------------------------------------------------|
|--------------------------------------------------------------------|
|--------------------------------------------------------------------|
|--------------------------------------------------------------------|



  Gtr II
        w/Rhy Fig 1
                ~~~~~~~
  E    E     e  E  +E   S  S  S  S   e
|---------------------------------------|
|-12--------------------------12-14--15-|
|------12b14------------12h13-----------|
|------------14-14-(14)-----------------|
|---------------------------------------|
|---------------------------------------|



  S  S  S  s S S  a  S  S  s  S  E       S  S   S  S
|----------------------------------------------------|
|---12-14-15---x-15p14p12----12----------------------|
|-------------------------12----12b13----------14p12-|
|---------------------------------------14-12--------|
|----------------------------------------------------|
|----------------------------------------------------|


w/Riff A
                            ~~~~~
   E      +S      +S       +H.              +H                     +E.    S Q
|----------------------------------------|---------------------------------------||
|-15b17==(15)r===(15)b17==(15)-----------|-(15)-------------------(15)r---xsx\---||
|----------------------------------------|--------------------------------xsx\---||
|----------------------------------------|---------------------------------------||
|----------------------------------------|---------------------------------------||
|----------------------------------------|---------------------------------------||




   Outro
 repeat Rhy Fig 1 + 1A to fade
 |------------------------|------------------------|-------------------------|


  Gtr III
           ~~~~~~~~~~~~
  Q     E  E      +Q          S  S   E        +S    E.   S E.   H
|------------------------------------------|---------------------------------|
|---------15b17==(15)r-------15p12---------|---------------x/----------------|
|-----------------------------------12b13==|=(12)r---------x/----------------|
|------------------------------------------|-------14\-----x/----------------|
|------------------------------------------|---------------------------------|
|------------------------------------------|---------------------------------|


                                                             ~~~
  S  E          +S   S  S  S      +S   S  S  S      +S    S  E.
|---------------------------------------------------------------|
|-x-----------------------12b13==(12)r---12-12------------------|
|-x-12b12.5====(12)r---12-12b14==(12)r---12-12b14==(12)r--------|
|-x-12b12.5====(12)r---12--------------------------------14-14--|
|---------------------------------------------------------------|
|---------------------------------------------------------------|


   +Q       Q   H
|----------------------------|
|----------------------------|
|----------------------------|
|-(14)\----------------------|
|----------------------------|
|----------------------------|


       ~~~~~                       ~~~
  E    Q.        S  S  S  S  S     E.   W
|---------------12----------15b17-15--|-------------------------|
|-----15b17--------15-12--------------|-------------------------|
|------------------------12-----------|-------------------------|
|-------------------------------------|-------------------------|
|-------------------------------------|-------------------------|
|-------------------------------------|-------------------------|


  S  S  S  S  S  S  S  S  S  S  S  S  S  S   E
|---15-15-15-15-15-15-15-15-15-15-15-15-15--15-|
|----x--x--x--x--x--x--x--x--x--x--x--x--x---x-|
|---12-12-12-12-12-12-12-12-12-12-12-12-12--12-|
|----------------------------------------------|
|----------------------------------------------|
|----------------------------------------------|





Comments


Popular Aerosmith tabs & chords
I Dont Want To Miss A Thing Intro Chords
Amazing Tabs
Big Ten Inch Tabs
I Don't Wanna Miss A Thing Tabs
Monkey On My Back Tabs
Nobody's Fault 1 Tabs
Permanent Vacation 1 Tabs
Rag Doll 1 Tabs
Walk This Way Solos Tabs
Devils Got A New Disguise Ukulele


Song lyrics



↑ Back to top | Tablatures and chords are parodies/interpretations of the original songs. You may use it for private study, scholarship, research or language learning purposes only
© 2014 AZChords.com Contact us | Privacy policy | DMCA | Add/correct tabs | Request tabs | Top 50 tabs