>
 >
I Dont Want To Miss A Thing 2

I Dont Want To Miss A Thing 2 Guitar Tabs

Aerosmith - I Dont Want To Miss A Thing 2 chords, tabs, tablatures, lyrics

Guitar lessons | Add/correct | Request | Top 50 tabs Artists:  A B C D E F G H I J K L M N O P Q R S T U V W X Y Z 0-9

I Dont Want To Miss A Thing 2 Guitar Tabs – Aerosmith

CD, Sheet music, Poster

Do you like I Dont Want To Miss A Thing 2? Share with your friends now
ChordsTabs
                  Don't want to miss a thing - Aerosmith


Tuning: guitar 1: EADGBe Bass Guitar: C#FAG Stupid tuning if you ask me

Verse:
Guitar1:
e|--------------------------------------------------------------------------|
B|--------------------------------------------------------------------------|
G|--------------------------------------------------------------------------|
D|--------------2---0-------------------------------------------------------|
A|--------0-------2---3------3-3-0-----------3-3-0-----------0--------0-----|
E|3-3-0-3---0-3-------------------3-3-0-3-3-------3-3-0-3-----3-3-0-3-------|
I tried linig the bass guitar  parts with the part that guitar 1 is on
Bass Guitar:
D|--------------------------------------------------------------------------|
A|----3---3-2-----2-3-----3-------0-----------------------0--1----3-----3---|
F|------------------4---4-2--2----0---0-2--------0------2-------------------|
C#|-------------------------------------3----3---1----1---------------------|
Guitar1:
e|---------------------------------------------------------------------------|
B|---------------------------------------------------------------------------|
G|---------------------------------------------------------------------------|
D|------------2---0--------------------------------------------0-0---2-------|
A|----0---------2---3-----3-3-0---------0-------0-------0--2-3-----------3-3-|
E|0-3-----0-3-------------------3-3-3-3---0-3-1--------------------3---------|

Bass Guitar:
D|---------------------------------------------------------------------------|
A|3-----3-2-----2-3-----3-----0----------------------------------------0---3-|
F|----------------4---4-2---2-0-----0-2---0-------------0--------2-2---0---4-|
C#|-----------------------------------3-3-1-------1-1-3----------3-3---------|
Guitar1:
e|--------------------------------------------------------------------------|
G|--------------------------------------------------------------------------|
D|0-2-2-0-------------------------------------------------------------------|
A|--------------------------------------------------------------------------|
E|--------------------------------------------------------------------------|

Bass Guitar:
D|----0-0-0-----------------------------------------------------------------|
A|----3-3-2-----------------------------------------------------------------|
F|----2-2-2-----------------------------------------------------------------|
C#|-------------------------------------------------------------------------|
Chorus:
Guitar 1:
e|---------------------------------------------------------------------------|
B|---------------------------------------------------------------------------|
G|------------------------0--------------------------------------------------|
D|--2-2-2-2-0-0---0-0-0-0--3-2-0---0---------2-0---0---0-----2-2-2-2-2-0-0-0-|
A|-------------------------------3---0-3---0-----3---0---3-------------------|
E|---------------------------------------3-----------------3-----------------|
Bass Guitar:
D|2-3-----0---0-0---0-----0--0---------------------0---2-----2-------0---0-0-|
A|3-3-----2---2-0---0-----0--0-----3-----3---3-----2---3-----3-------2---2-0-|
F|2-2-----2---2-0---0-----0--0-----4-----4---4-----2---2-----2-------2---2-0-|
C#|--------------------------------6-----6---6-------------------------------|
Guitar1:
e|--------------------------------------------------------------------------|
B|--------------------------------------------------------------------------|
G|------0-------------------------------------------------------------------|
D|0-0-0---3-2-0---0---------2-0---0---0-------------------------------------|
A|--------------3---0-3---0-----3---0---3-----------------------------------|
E|----------------------3---------------------------------------------------|
Bass Guitar:

D|0-----0---0---------------------0---2-------------------------------------|
A|0-----0---0-----3---3-----3-----2---3-------------------------------------|
F|0-----0---0-----4---4-----4-----2---2-------------------------------------|
C#|---------------6---6-----6-----------------------------------------------|
Bridge:
Guitar1:
e|---------------------------------------------------------------------------|
B|---------------------------------------------------------------------------|
G|---------------------------------------------------------------------------|
D|2-2-2-2-0-0-0--------0-0-0-----0-----------------------0-1-0-------------1-|
A|--------------3-1----------3-3---0-------3-3-3-1-3-1-3-------3-1-2-2-------|
E|---------------------------------------------------------------------------|

e|--------------------------------------------------------------------------|
B|--------------------------------------------------------------------------|
G|------------------------------0---------------------------0-0-------------|
D|2-2-2-1-0-0-------0-3-3-0-3-0---3---0-1-2-3-2-0-----0-2-0-----------------|
A|------------3-1-2-----------------3-------------3-3-----------------------|
E|--------------------------------------------------------------------------|

Order:
Verse
Chorus
Verse
Chorus
Bridge
Chorus

        C           G               Am           C
I could stay awake just to hear you breathing
          F                   C
Watch you smile while you are sleeping
             Dm           G
While you're far away and dreaming
        C              G                Am       C
I could spend my life in this sweet surrender
        F                 C         Dm
I could stay lost in this moment forever
             Em            F              G    G7   C
Every moment spent with you is a moment I treasure
              G              Dm
I don't wanna close my eyes

I don't wanna fall asleep
          F
Cause I'd miss you, baby
                  G      C
And I don't wanna miss a thing
                               Dm
Cause even when I dream of you

The sweetest dream will never do
          F
I'd still miss you, baby
                  G      C      G     Dm     G
And I don't wanna miss a thing
      C            G                  Am      C
Lying close to you feeling your heart beating
        F                     C
And I'm wondering what you're dreaming
          Dm                G
Wondering if it's me you're seeing
       C                  G                  Am     C
Then I kiss your eyes and thank God we're together
                 Em             F
And I just wanna stay with you
                  G        G7             C
In this moment forever, forever and ever
                             Dm
I don't wanna close my eyes

I don't wanna fall asleep
          F
Cause I'd miss you, baby
                  G      C
And I don't wanna miss a thing
                  G
Cause even when I dream of you
Dm
The sweetest dream will never do
          F
I'd still miss you, baby
                  G      C
And I don't wanna miss a thing
              A#
I don't wanna miss one smile
              F
I don't wanna miss one kiss
                   G#
Well, I just wanna be with you
                     F#
Right here with you, just like this
             A#
I just wanna hold you close
                   F
Feel your heart so close to mine
         Cm
And just stay here in this moment
            G            G7   C
For all the rest of time
            G             Dm
Don't wanna close my eyes

Don't wanna fall asleep
          F
Cause I'd miss you, baby
                  G      C
And I don't wanna miss a thing
                               Dm
Cause even when I dream of you

The sweetest dream will never do
                F
Cause I'd still miss you, baby
                  G      C
And I don't wanna miss a thing

Repeat Chorus





Comments


Popular Aerosmith tabs & chords
Fallin In Love Bass Tabs
Livin On The Edge Bass Tabs
Movin Out Bass Tabs
Rats In The Cellar Bass Tabs
You See Me Crying Bass Tabs
Dream On 2 Tabs
Mama Kin 1 Tabs
One Way Street Live Tabs
Walk This Way 4 Tabs
Rats In The Cellar Ukulele


Song lyrics



↑ Back to top | Tablatures and chords are parodies/interpretations of the original songs. You may use it for private study, scholarship, research or language learning purposes only
© 2014 AZChords.com Contact us | Privacy policy | DMCA | Add/correct tabs | Request tabs | Top 50 tabs