» » »

Aerosmith, I Don't Want To Miss A Thing Bass tabs (ver.1)

Artists:  A B C D E F G H I J K L M N O P Q R S T U V W X Y Z # 

I Don't Want To Miss A Thing Bass tabs (ver.1)

Aerosmith Tabs
 Rating:
4/5 (4 votes)
I Don't Want To Miss A Thing lessons Tabs too difficult? Try these video lessons and learn fast
1
                "Verse:
G|-------------------------------------------|
D|-------------------------------------------|
A|--------5~--------0~----------------2~-----|
E|-------------------------------------------|
I could stay awake just to hear you breathing

G|-----------------------------------------------------------------|
D|-----------5~----------------------------------------------------|
A|----------------------------5~------------------7~----------0~---|       
E|-----------------------------------------------------------------| 	      
Watch you smile while you are sleeping while your far away dreaming

G|-------------------------------------------|
D|-------------------------------------------|
A|--------5~----------0~--------------2~-----|
E|-------------------------------------------|
I could spend my life in this sweet surrender

G|------------------------------------------|
D|--------5~----------------------------7---|
A|-----------------------5~---------7-------|         
E|------------------------------------------|
I could stay lost in this moment forever

G|-------------------------------------------------|
D|-------------------------------------------------|
A|------------0~---------10~---------------5---0---|
E|-------------------------------------------------|
Every moment spent with you is a moment I treasure

Chorus:
G|---------------------------------------|
D|---------------------------------------|
A|-5~---------------------0~-------------|
E|---------------------------------------|
	I don't want to close my eyes
G|----------------------------------------------------------|
D|----------------------------------------------9~----------|
A|-7~-------------------------------------------------------|
E|----------------------------------------------------------|
	I don't want to fall asleep 'cause I'd miss you baby

G|---------------------------------|
D|-----5~--------------------------|
A|-----------------------------5~--|
E|---------------------------------|
and I don't want to miss a thing

G|---------------------------------------|
D|---------------------------------------|
A|-5~------------------------0~----------|
E|---------------------------------------|
	'cause even when I dream of you

G|--------------------------------------------------------------|
D|--------------------------------------------------9~----------|
A|-7~-----------------------------------------------------------|
E|--------------------------------------------------------------|
	the sweetest dream will never do I'd still miss you baby

G|-------------------------------------|
D|-----5~------------------------------|
A|---------------------------5~----0--7|
E|-------------------------------------|
and I don't want to miss a thing

Verse2:
G|-------------------------------------------|
D|-------------------------------------------|
A|-----5~------------0~----------------2~----|
E|-------------------------------------------|
Lyin close to you feeling your heart beating

G|---------------------------------------------------------------------|
D|-----------5~--------------------------------------------------------|
A|----------------------------5~----------------7~----------------0~---|     

E|---------------------------------------------------------------------| 
and I'm wonderin what you're dreaming wonderin if it's me you're seein

G|--------------------------------------------------|
D|--------------------------------------------------|
A|------5~-----------------0~----------------2~-----|
E|--------------------------------------------------|
Then I kiss your eyes and thank God we're together

G|--------------------------------------------------|
D|--------------------------------------------------|
A|--------------0~--------5~------------------0~----|
E|--------------------------------------------------|
I just want to stay with you in this moment forever

G|-------------------|
D|-------------------|
A|-0-0-0-0-0-0-0-0-0-|
E|-------------------|
forever and ever


Chorus:
G|---------------------------------------|
D|---------------------------------------|
A|-5~---------------------0~-------------|
E|---------------------------------------|
	I don't want to close my eyes

G|----------------------------------------------------------|
D|----------------------------------------------9~----------|
A|-7~-------------------------------------------------------|
E|----------------------------------------------------------|
	I don't want to fall asleep 'cause I'd miss you baby

G|---------------------------------|
D|-----5~--------------------------|
A|-----------------------------5~--|
E|---------------------------------|
and I don't want to miss a thing

G|---------------------------------------|
D|---------------------------------------|
A|-5~------------------------0~----------|
E|---------------------------------------|
	'cause even when I dream of you

G|--------------------------------------------------------------|
D|--------------------------------------------------9~----------|
A|-7~-----------------------------------------------------------|
E|--------------------------------------------------------------|
	the sweetest dream will never do I'd still miss you baby

G|---------------------------------|
D|-----5~--------------------------|
A|-----------------------------5~--|
E|---------------------------------|
and I don't want to miss a thing

Verse
G|--------------------------------|
D|--------------------------------|
A|-5~---------------3~------------|
E|--------------------------------|
   I don't want to miss one smile

G|--------------------------------|
D|--------------------------------|
A|--------------------------------|
E|------------------3~------------|
   I don't want to miss one kiss

G|---------------------------------------------------------------|
D|---------------------------------------------------------------|
A|----------------5~--------------------------------8~-----------|
E|---------------------------------------------------------------|
   I just want to be with you right here with you just like this
G|--------------------------------|
D|--------------------------------|
A|-----------------3~-------------|
E|--------------------------------|
   I just want to hold you close
G|---------------------------------|
D|---------------------5~----------|
A|---------------------------------|
E|---------------------------------|
   feel your heart so close to mine

G|-----------------------------------------------------------|
D|-----------------------------------------------------------|
A|-----------5~-----------------------------------0~---------|
E|-----------------------------------------------------------|
   and just stay here in this moment for all the rest of time
G|-----------------------------------------|
D|-----------------------------------------|
A|-0-0-0-0-0-0-0-0-12-12-12-12-12-12-12-12-|
E|-----------------------------------------|
yeah, yeah, yeah.....


Chorus: Repeat twice then fade to end
"            
Submit corrections

comments powered by Disqus
↑ Back to top | Aerosmith Bass for I Don't Want To Miss A Thing. Lyrics for acoustic guitar and electric guitar. 1 Tablatures and chords are parodies/interpretations of the original songs. You may use it for private study, scholarship, research or language learning purposes only