>
 >
Hand That Feeds

Hand That Feeds Bass Tabs

Aerosmith - Hand That Feeds chords, tabs, tablatures, lyrics

Guitar lessons | Add/correct | Request | Top 50 tabs Artists:  A B C D E F G H I J K L M N O P Q R S T U V W X Y Z 0-9

Hand That Feeds Bass Tabs – Aerosmith

CD, Sheet music, Poster

Do you like Hand That Feeds? Share with your friends now
Bass TabsTabs
-------------------------------------------------------------------------------
                 HAND THAT FEEDS - Aerosmith
-------------------------------------------------------------------------------


Tuning: Standard EADG

Intro:
G|-----------|
D|4:---------| 8x
A|4:---------|
E|---1-1-1-1-|

Verse:
G|-----2-2-|------------|
D|---------|------------| 8x
A|-0-0-----|0-0---------|
E|---------|----1-2-3-4-|

Chorus:
G|---------|---------|---------|---------|---------|---------|
D|---------|---------|---------|---------|---------|---------|
A|-2-2-2-2-|-2-2-2-2-|-4-4-4-4-|-4-4-4-4-|-5-5-5-5-|-5-5-5-5-|
E|---------|---------|---------|---------|---------|---------|


G|---------|-----------------|-----------|
D|---------|-----7-7---------|2:---------|
A|-7-7-----|-5-7-----5-3-----|4:---------|
E|---------|-------------5-3-|---1-2-3-4-|

Verse:
G|-------2-2-|------------|
D|4:---------|------------| 4x
A|4:-0-0-----|0-0---------|
E|-----------|----1-2-3-4-|

Chorus:
G|---------|---------|---------|---------|---------|---------|
D|---------|---------|---------|---------|---------|---------|
A|-2-2-2-2-|-2-2-2-2-|-4-4-4-4-|-4-4-4-4-|-5-5-5-5-|-5-5-5-5-|
E|---------|---------|---------|---------|---------|---------|


G|---------|-------------0-2-|-----------|
D|---------|---------0-2-----|2:---------|
A|-7-7-----|-0-2-3-4---------|4:---------|
E|---------|-----------------|---1-2-3-4-|


G|-------2-2-|------------|-----2-2-|---------|
D|4:---------|------------|---------|---------|
A|4:-0-0-----|0-0---------|-0-0-----|-0-0-3-3-|
E|-----------|----1-2-3-4-|---------|---------|

Bridge:
G|---------|---------|---------|---------|
D|---------|---------|---------|---------| 2x
A|---------|---------|---------|---------|
E|-3-3-3-3-|-2-2-2-2-|-0-0-0-0-|-0-0-0-0-|


G|---------|---------|---------|---------|---------|---------|-----------|
D|---------|---------|---------|---------|---------|---------|2:---------|
A|---------|---------|---------|-5-5-5-5-|-3-3-3-3-|-3-3-3-3-|4:---------|
E|-3-3-3-3-|-2-2-2-2-|-0-0-0-0-|---------|---------|---------|---1-2-3-4-|

Guitar solo:
G|---------|-------------|---------|-------------|
D|---------|-------------|---------|-------------| 2x
A|-0-0-0-0-|-0-0-0-------|---------|-------------|
E|---------|-------4-3-2-|-1-1-1-1-|-1-1-1-2-3-4-|


G|---------|-------------|---------|-----------5-|
D|---------|-------------|---------|-----6-5-6---|
A|-0-0-0-0-|-0-0-0-------|---------|-2-3---------|
E|---------|-------4-3-2-|-1-1-4-6-|-------------|


G|---------|---------|---------|-----------5-|
D|---------|---------|---------|-----6-5-6---| 2x
A|-0-0-0-0-|-0-0-0-0-|---------|-2-3---------|
E|---------|---------|-1-1-4-6-|-------------|


G|---------|---------|---------|-------------|
D|---------|---------|---------|-------------|
A|---------|---------|---------|-------------|
E|-0-0-0-0-|-0-0-0-0-|-0-0-0-0-|-0-0-1-2-3-4-|

Verse:
G|-----2-2-|------------|
D|---------|------------| 4x
A|-0-0-----|0-0---------|
E|---------|----1-2-3-4-|

Chorus:
G|---------|---------|---------|---------|---------|---------|
D|---------|---------|---------|---------|---------|---------|
A|-2-2-2-2-|-2-2-2-2-|-4-4-4-4-|-4-4-4-4-|-5-5-5-5-|-5-5-5-5-|
E|---------|---------|---------|---------|---------|---------|


G|---------|---------|-----------|
D|---------|---------|2:---------|
A|---------|---------|4:---------|
E|-0-0-----|---------|---1-2-3-4-|

Outro:
G|---------|-----------|-----------|-------------|
D|---------|-----------|-----------|-------------|
A|-0-0-0-0-|-0-0-0-0-0-|-----------|-------------|
E|---------|-----------|-1-1-1-1-1-|-1-1-1-1-1-1-|


G|---------|-----------|---------|-------------|
D|---------|-----------|---------|-------------|
A|-0-0-0-0-|-0-0-0-0-0-|---------|-------------|
E|---------|-----------|-1-1-1-1-|-1-1-1-2-3-4-|


G|-----------|-----------|---------|-----------|
D|-----------|-----------|---------|-----------| 2x
A|-0-0-3-0---|-0-0-3-0---|---------|-----------|
E|---------3-|---------3-|-1-1-1-1-|-1-1-1-1-1-|


G|---2-2---2-2-|---2-2---------|-----------|-----------|
D|-------------|---------------|-----------|-----------|
A|-0-----0-----|-0-----0-------|-----------|-----------|
E|-------------|---------4-3-2-|-1-1-1-1-1-|-1-1-1-1-1-|


G|-----------|---------------|-----------|-----------|
D|-----------|---------------|-----------|-----------|
A|-0-3-0-3-0-|-3-0-3-0-------|-----------|-----------|
E|-----------|---------4-3-2-|-1-1-1-1-1-|-1-1-1-1-1-|


G|---------|-------------|-----------|-------------|
D|---------|-------------|-----------|-------------|
A|-0-3-0---|-0-3-0-------|-----------|-------------|
E|-------3-|-------4-3-2-|-1-1-1-1-1-|-1-1-1-2-3-4-|


G|-----------|---------------|-----------|-----------|
D|-----------|---------------|-----------|-----------| 2x
A|-0-3-0-3-0-|-3-0-3-0-------|-----------|-----------|
E|-----------|---------4-3-2-|-1-1-1-1-1-|-1-1-1-1-1-|

Begin to fade
G|---2-2---2-2-|---2-2---------|-----------|-----------|
D|-------------|---------------|-----------|-----------|
A|-0-----0-----|-0-----0-------|-----------|-----------|
E|-------------|---------4-3-2-|-1-1-1-1-1-|-1-1-1-1-1-|


G|---------|-------------|-----------|-------------|
D|---------|-------------|-----------|-------------|
A|-0-3-0---|-0-3-0-------|-----------|-------------|
E|-------3-|-------4-3-2-|-1-1-1-1-1-|-1-1-1-2-3-4-|


G|---2-2---2-2-|---2-2---------|-----------|-----------|
D|-------------|---------------|-----------|-----------|
A|-0-----0-----|-0-----0-------|-----------|-----------|
E|-------------|---------4-3-2-|-1-1-1-1-1-|-1-1-1-1-1-|


G|-----------|---------------|-----------|-----------|
D|-----------|---------------|-----------|-----------|
A|-0-3-0-3-0-|-3-0-3-0-------|-----------|-----------|
E|-----------|---------4-3-2-|-1-1-1-1-1-|-1-1-1-1-1-|


| /  slide up
| \  slide down
| h  hammer-on
| p  pull-off
| ~  vibrato
| +  harmonic
| x  Mute note
===============================================================================





Comments


Popular Aerosmith tabs & chords
Love In An Elevator 2 Bass Tabs
The Grind Bass Tabs
Walking The Dog Bass Tabs
Last Child Chords
Lick And A Promise Chords
Janie's Got A Gun 1 Tabs
No Surprize Tabs
Nobody's Fault 1 Tabs
You Gotta Move Tabs
Im The One Ukulele


Song lyrics



↑ Back to top | Tablatures and chords are parodies/interpretations of the original songs. You may use it for private study, scholarship, research or language learning purposes only
© 2014 AZChords.com Contact us | Privacy policy | DMCA | Add/correct tabs | Request tabs | Top 50 tabs