» » »

Get The Lead Out Tabs (ver.1)

Artists:  A B C D E F G H I J K L M N O P Q R S T U V W X Y Z # 

Get The Lead Out Tabs (ver.1)

Aerosmith
Rating:
0/5 (0 votes)

Tabs too difficult? Try these video lessons and learn fast.
                This song personally is easy, but can be very fast in different parts of the song...
(The song is also tuned down half of a step)
Eb ---------------------------------------------------------------------------------
Ab ---------------------------------------------------------------------------------
Db ---------------------2-2--2-------------------------2-----2---------------------2
Gb ---------------------0-3--0-------------------------0-3---0---------------------0
Bb --17/---2--3--4--5----------------0--2-0-3-3-4-5-----------------0--2-0-3-x-4-5--Eb -------------------------------3-------------------------------3-----------------

Eb ---------------------------------------------------------------------------------
Ab ---------------------------------------------------------------------------------
Db -----------------------------------------0---0-2---------------------0---0-2-----
Gb ------------------3^2-0--------5^4-2-----0---0-2----4---4^(4)^2------0---0-2-----
Bb ----3^2-0----------------------------0---------0----------------3^0----0---------
Eb ----------1-------------3--------------------------------------------------------
            
Tabs too difficult? Try these video lessons and learn fast.


comments powered by Disqus
↑ Back to top | Tablatures and chords are parodies/interpretations of the original songs. You may use it for private study, scholarship, research or language learning purposes only