» » »

Dude (Looks Like A Lady) Bass tabs (ver.4)

Artists:  A B C D E F G H I J K L M N O P Q R S T U V W X Y Z # 

Dude (Looks Like A Lady) Bass tabs (ver.4)

Aerosmith
Rating:
0/5 (0 votes)

Tabs too difficult? Try these video lessons and learn fast.
                Aerosmith
Dude looks Like a Lady
Bassist Tom Hamilton
I suggest you play this one with a plec


G|---------------------------------------------------------------------------|
D|---------------------------------------------------------------------------|
A|---------------------------------------------------------------------------|
D|2-/-7----------------------------------------------------------------------|
Repeat this for the intro, then on the last bit of the intro slide down from
0 to 12th fret on A string A|0-/-12----

The main riff for verse and chorus youll repeat over and over again is
(Be Sure to listen to the timing)
G|---------------------------------------------------------------------------|
D|-----------2---5-----------------------------------------------------------|
A|--------5------------------------------------------------------------------|
D|7-5-7\-0--2---5------------------------------------------------------------|

This what you play all the verse, the only variation is before you hit the same
riff into the chorus when tyler screams "tried to blow me away" or "lord imagine
my surprise" instead of playing the octaves after 7 5 7\ you play 7 5 7\ then
slide from open to do five 7's so its E|7-5-7\-/7-7-7-7

Then for the Pre solo bit "baby let me follow you down" its 

G|---------------------------------------------------------------------------|
D|---------------------------------------------------------------------------|
A|---------------------------------------------------------------------------|
D|-7-5-7\--3-----------------------------------------------------------------|
Repeat this 3 times with baby let me follow you down

Then on the final baby let me follow you down you play on the A string
A|-5-3-5-----

"do me do me do me DO MEEE"

D|2-3-4-5-------
^thats not standard D, thats on the E tuned down to D string

During the solo play the same old verse riff i covered earlier

Then the final bit is the "what a funky ladyyy" after the solo

G|---------------------------------------------------------------------------|
D|---------------------------------------------------------------------------|
A|---------------------------------------------------------------------------|
D|-2-2-2-0-0-2---------------------------------------------------------------|

Finish the above off the final time you do it with 7th fret on the STANDARD D
string D|--7--

let the drums play whilst no one plays, then you play the intro riff again
including the slide down to 12th fret bit and then repear the main verse
riff until it fades out, i think theres one fill in where you play the
D|-7-5-7-- on the standard D instead of the drop D but yeah, play out
till it fades.

I hope this is right
            
Tabs too difficult? Try these video lessons and learn fast.


comments powered by Disqus
↑ Back to top | Tablatures and chords are parodies/interpretations of the original songs. You may use it for private study, scholarship, research or language learning purposes only