» » »

Aerosmith, Dream On Tabs (ver.9)

Artists:  A B C D E F G H I J K L M N O P Q R S T U V W X Y Z # 

Dream On Tabs (ver.9)

Aerosmith Tabs
Rating:
0/5 (0 votes)
Dream On lessons Tabs too difficult? Try these video lessons and learn fast
                Dream On by: Aerosmith




Standard tuning: (E-A-D-G-B-e)


/ = slide up
\ = slide down
p = pull-off
h = hammer-on
b = bend 
~ = let ring



Intro:
e|-4---4---3---3---4--4---3---3----4--4---6--6---8---8---8--|
B|-6---6---4---4---3--3---2---2----6--6---6--6---6---6---6--|
G|---5---5---5---5---5--5---5---5---5---5---5--5---5---5----|
D|----------------------------------------------------------|
A|----------------------------------------------------------|
E|----------------------------------------------------------|

e|-4--4---3---3--4---4---3--3---4---4---6---6---8---8---6-4--6--8--8--8-6---|
B|-6--6---4---4--3---3---2--2---6---6---6---6---6---6---6-6--6--9--9--8-6--6|
G|---5--5---5--5---5---5--5---5---5---5---5---5---5---5----5--5--7--7-------|
D|--------------------------------------------------------------------------|
A|--------------------------------------------------------------------------|
E|--------------------------------------------------------------------------|

e|--------------------------------------------------------------------------|
B|-------------------------5-6/8-6-8/9-8-9/11-9h11p9-8h9p8-6h8p6-4h6p4-2\1/13
G|6-5-6-5-6-5-6-5-6-5-3-5/6-------------------------------------------------|
D|--------------------------------------------------------------------------|
A|--------------------------------------------------------------------------|
E|--------------------------------------------------------------------------|

Verse:
E|-4---4---3---3---|-4---4---3---3---|
B|-6---6---4---4---|-3---3---2---2---| 
G|---5---5---5---5-|---5---5---5---5-|x4
D|-----------------|-----------------|
A|-----------------|-----------------|
E|-----------------|-----------------|

Verse cont:
E|-4---4---3---3---|-4---4---3---3---|
B|-6---6---6---5---|-3---3---2---2---|
G|---5---5---5---5-|---5---5---5---5-|
D|-----------------|-----------------|
A|-----------------|-----------------|
E|-----------------|-----------------|


Bridge:
e|-----------------|
B|-----------------|
G|-6-5-6-5-6-5-6-5-|x2
D|-----------------|
A|-----------------|
E|-----------------|


Chorus:
e|-----------------------------------------|
B|-----------------------------------------|
G|-10~--10~--8~---8~--6~---6~--8~---8~-----|x2
D|-10~--10~--8~---8~--6~---6~--8~---8~-----|
A|--8~---8~--6~---6~--4~---4~--6~---6~-----|
E|-----------------------------------------|


REPEAT VERSE: (w/ Riff 1)

Riff 1:
e|----------------------------|
B|----------------------------|
G|---------------1------------|
D|-----------------3~~~~~-----|
A|--------1-2-3---------------|
E|-1-3-4----------------------|


REPEAT CHORUS: (w/ Riff 2)

Riff 2:                                     
e|--------------------------------------------------------------|---------|
B|--------------------------------------------------------------|---------|
G|-5---------------5---------------5---------------5------------|---------|
D|---3-3--3~---------5-5--5~---------6-6--6~---------8-8-8-8~---|---8/10~-|
A|--------------------------------------------------------------|---------|
E|--------------------------------------------------------------|---------|


REPEAT BRIDGE:
e|-----------------|
B|-----------------|
G|-6-5-6-5-6-5-6-5-|x2
D|-----------------|
A|-----------------|
E|-----------------|


Solo progression:
e|---4-----4------6------6-----6------8-----8-----8/---13~~-----|
B|-----6-----6------6------6-----6------6-----6-----------------|
G|-5-----5-----5------5------5-----5------5-----5---------------|
D|--------------------------------------------------------------|
A|--------------------------------------------------------------|
E|--------------------------------------------------------------|

e|-8-----8-----------8--------------------8----------------------|
B|-----6-----6-----6-----6---6------6---6---6---8----8b~~--------|
G|---------------------------------------------------------------|
D|---------------------------------------------------------------|
A|---------------------------------------------------------------|
E|---------------------------------------------------------------|

e|----4----4-----4-----6-----6-------8-----8-----8/---13~~-------|
B|----6------6-----6-----------6-------6-----6-------------------|
G|-5-----------5-----5-----5-----5-------5-----5-----------------|
D|---------------------------------------------------------------|
A|---------------------------------------------------------------|
E|---------------------------------------------------------------|

e|-8-----8---------|---8-------------|
B|-----6-----6-----|-6-----6---6\----|
G|-----------------|-----------------|
D|-----------------|-----------------|
A|-----------------|-----------------|
E|-----------------|-----------------|


REPEAT CHORUS: (w/ Riff 2 & 3)

Riff 2:                                     
e|--------------------------------------------------------------|
B|--------------------------------------------------------------|
G|-5---------------5---------------5---------------5------------|
D|---3-3--3~---------5-5--5~---------6-6--6~---------8-8-8-8~---|
A|--------------------------------------------------------------|
E|--------------------------------------------------------------|

Riff 3:
e|------------------------------------------------|
B|------------------------------------------------|
G|--------------8~-----------8-9----8-10-p8-----8-|
D|-8/10~~-------------10---------10----------10---|
A|------------------------------------------------|
E|------------------------------------------------|

e|--------8--------------------------------------------|
B|-----------8-11-p8---------------------------8-11b~--|
G|-10b~~-------------10-8--10p8------8-10-10b----------|
D|------------------------------10---------------------|
A|-----------------------------------------------------|
E|-----------------------------------------------------|



"Dream on....." (played with riff 4)
e|-----------------------------------------------------------|
B|--------------------------(----------Riff 4-here--------)--|
G|-3~--3-5~--5-6~--6-8~--8\----------------------------------|
D|-3~--3-5~--5-6~--6-8~--8\--3---3---3---3---3---3---3---3---|
A|-1~--1-3~--3-4~--4-6~--6\--3---3---3---3---3---3---3---3---|
E|---------------------------1---1---1---1---1---1---1---1---|

Riff 4:
e|---------------------------------------------------|
B|-16b~~--------16b~~--------16b~~-------16b~~-------|
G|---------------------------------------------------|
D|---------------------------------------------------|
A|---------------------------------------------------|
E|---------------------------------------------------|

e|---------------------------------------------------|
B|-16b-16----13--------------------------------------|
G|--------------15----13-----------------------------|
D|-----------------------15-----13-------------------|
A|---------------------------------15-14-13-11-------|
E|---------------------------------------------13\---|

"Dream on....." (played with riff 5)
e|-----------------------------------------------------------|
B|--------------------------(---------Riff 5 here--------)---|
G|-3---3-5---5-6---6-8---8\----------------------------------|
D|-3---3-5---5-6---6-8---8\--3---3---3---3---3---3---3---3---|
A|-1---1-3---3-4---4-6---6\--3---3---3---3---3---3---3---3---|
E|---------------------------1---1---1---1---1---1---1---1---|

Riff 5:                                               
e|-----------------|-------------------|-----------4-4---|-4-6-6-6-6-6-6---|
B|-----------------|-------------4-----|-6-4-4---6-----6-|---(bend^^^^^^)--|
G|-----------1-----|-3-1---1-3/5-----5-|-------5---------|-----------------|
D|-3-1---1-3-----3-|-----3-------------|-----------------|-----------------|
A|-----3-----------|-------------------|-----------------|-----------------|
E|-----------------|-------------------|-----------------|-----------------|

"Dream on....." 
e|----------------------------------------------------|-------------|
B|----------------------------------------------------|-------------|
G|-3---3-5---5-6---6-8---8\---------------------------|-------------|
D|-3---3-5---5-6---6-8---8\--3---3-5---5-6---6-8---8--|---10--------|
A|-1---1-3---3-4---4-6---6\--3---3-5---5-6---6-8---8--|---10-(x16)--|
E|-1---1-3---3-4---4-6---6\--1---1-3---3-4---4-6---6--|----8--------|


REPEAT CHORUS: (w/ riff 2)

Riff 2:                                     
e|--------------------------------------------------------------|---------|
B|--------------------------------------------------------------|---------|
G|-5---------------5---------------5---------------5------------|---------|
D|---3-3--3~---------5-5--5~---------6-6--6~---------8-8-8-8~---|---8/10~-|
A|--------------------------------------------------------------|---------|
E|--------------------------------------------------------------|---------|
            
Submit corrections

comments powered by Disqus
↑ Back to top | Aerosmith Tabs for Dream On. Lyrics for acoustic guitar and electric guitar. Tablatures and chords are parodies/interpretations of the original songs. You may use it for private study, scholarship, research or language learning purposes only