» » »

Dream On Tabs (ver.6)

Artists:  A B C D E F G H I J K L M N O P Q R S T U V W X Y Z # 

Dream On Tabs (ver.6)

Aerosmith
Rating:
0/5 (0 votes)

Hard to play? Try these video lessons and learn fast.
                Aerosmith - Dream On

Standard tuning with a capo on 1st fret

Intro and verse:
e+-3-----3----|-2-----2----|-3-----3----|-2-----2----|
B+-5-----5----|-3-----3----|-2-----2----|-1--0--1--0-|
G+----4-----4-|----4-----4-|----4-----4-|------------|
D+------------|------------|------------|------------|
A+------------|------------|------------|------------|
E+------------|------------|------------|------------|

|-3-----3----|-5-----5----|--7-----7----|--7---------|
|-5-----5----|-7-----7----|--8-----8----|--8---------|
|----4-----4-|----4-----4-|-------------|--9---------|
|------------|------------|-----9-----9-|--9---------|
|------------|------------|-------------|------------|
|------------|------------|-------------|------------|

|-3-----3----|-2-----2----|--3-----3----|-2-----2----|
|-5-----5----|-3-----3----|--2-----2----|-1--0--1--0-|
|----4-----4-|----4-----4-|-----4-----4-|------------|
|------------|------------|-------------|------------|
|------------|------------|-------------|------------|
|------------|------------|-------------|------------|

|-3-----3----|-5-----5----|--7-----7----|--5---3---5-|
|-5-----5----|-5-----5----|--5-----5----|--5---5---5-|
|----4-----4-|----5-----5-|-------------|------------|
|------------|------------|-------------|------------|
|------------|------------|-------------|------------|
|------------|------------|-------------|------------|

|--7-----9----|--7\5---5---|------------|------------|
|--8-----8----|--7\5---5---|------------|------------|
|-------------|------------|-5--4--5--4-|-5--4--5--4-|
|-------------|------------|------------|------------|
|-------------|------------|------------|------------|
|-------------|------------|------------|------------|

                          
Lead Guitar:              
|-----------------|---------------------|---------------------------|
|-----------4/5/7-|-5/7/8-7/8/10-8h10p8-|-7h8p7-5h7p5-3h5p3--1-0/12-|
|-5/4/2-4-5-------|---------------------|---------------------------|
|-----------------|---------------------|---------------------------|
|-----------------|---------------------|---------------------------|
|-----------------|---------------------|---------------------------|

Guitar 2 or keyboard:

|-2-------2-------|-2-------2---------|-2-----------2---------|
|-1---0---1---0---|-1---0---1----0----|-1-----0-----1-----0---|
|-----------------|-------------------|-----------------------|
|-----------------|-------------------|-----------------------|
|-----------------|-------------------|-----------------------|
|-----------------|-------------------|-----------------------|


In the verse is played the first line of the Intro:
And then:

|-3-----3----|-2-----2----|-3-----3----|-2-----2----|
|-5-----5----|-4-----4----|-5-----5----|-5-----5----|
|----4-----4-|----4-----4-|----4-----4-|----4-----4-|
|------------|------------|------------|------------|
|------------|------------|------------|------------|
|------------|------------|------------|------------|

|------------|------------|
|------------|------------|
|-4--5--4--5-|-4--5--4--5-|
|------------|------------|
|------------|------------|
|------------|------------|

Chorus:

F5          D#5    
I know what nobody knows
C#5                D#5 
Where it comes and where it goes
F5          D#5              
I know it's everybody's sin
C#5                D#5 
You got to lose to know how to win

Chord tabs

     F5         D#5        C#5      
|-------------------------------------|
|-------------------------------------|
|----9-----------7----------5---------|
|----9-----------7----------5---------|
|----7-----------5----------3---------|
|-------------------------------------|

VERSE 2

During verse 2 a second guitar plays:
|-----------------|-----------------|
|-----------------|-----------------|
|-------------0---|-----------------|
|---------------2-|~~~~~------------|
|-------0-1-2-----|-----------------|
|-0-2-3-----------|-----------------|


Chorus:

F5            D#5
Sing with me, sing for the years
C#5                    D#5
Sing for the laughter, sing for the tears
F5            D#5 
Sing with me, if it's just for tofay
C#5            D#5   
Mabye tomorrow the good Lord will take you away

SOLO:
|------------|------------|
|------------|------------|
|-4--5--4--5-|-4--5--4--5-|
|------------|------------|
|------------|------------|
|------------|------------|


|---3-----3-----5-|-----5---------|-7-----7-----7/--|-12--------------|
|-----5-----5-----|-5-----5-------|---5-----5-------|-----------------|
|-4-----4-----4---|---4-----4---4-|-----4-----4-----|-----------------|
|-----------------|---------------|-----------------|-----------------|
|-----------------|---------------|-----------------|-----------------|
|-----------------|---------------|-----------------|-----------------|


|--7----7---------|---7-------7-----|-----------------|
|-----5-----5-----|-5-----5-------5-|-5---7--7b8r7----|
|-----------------|-----------------|-----------------|
|-----------------|-----------------|-----------------|
|-----------------|-----------------|-----------------|
|-----------------|-----------------|-----------------|

|---3-----3-----5-|-----5---------|-7-----7-----7/--|-12--------------|
|-----5-----5-----|-5-----5-------|---5-----5-------|-----------------|
|-4-----4-----4---|---4-----4---4-|-----4-----4-----|-----------------|
|-----------------|---------------|-----------------|-----------------|
|-----------------|---------------|-----------------|-----------------|
|-----------------|---------------|-----------------|-----------------|


|-7------7--------|---7-------7-----|
|-----5-----5-----|-5-----5---------|
|-----------------|-----------------|
|-----------------|-----------------|
|-----------------|-----------------|
|-----------------|-----------------|

CHORUS X1

A second guitar is playing this during the chorus:

|-----------------|-----------------|
|-----------------|-----------------|
|--4--------------|--4--------------|
|-----2-2-2-2-----|-----4-4-4-4-----|
|-----------------|-----------------|
|-----------------|-----------------|

|-----------------|-----------------|
|-----------------|-----------------|
|-----------------|-----------------|
|--4--------------|--4--2-2-2-2-----|
|-----5-5-5-5-----|-----------------|
|-----------------|-----------------|

SOLO 2:

|-----------------|----------7------|------------------|----------------|
|-----------------|------------7-10-|-7----------------|-7-10b12--------|
|--7h8----7-8p7---|-7--9b11---------|-----9-7---7--9b11|----------------|
|-------9--------9|-----------------|----------9-------|----------------|
|-----------------|-----------------|------------------|----------------|
|-----------------|-----------------|------------------|----------------|

A#5, C5, C#5, D#5


|---11b13-------11b13------|----11b13-------11b13r11-|
|--------------------------|-------------------------|
|--------------------------|-------------------------|
|--------------------------|-------------------------|
|--------------------------|-------------------------|
|--------------------------|-------------------------|

|--12-10-------------------|-------------------------|
|---------12-10------------|-------------------------|
|----------------12--9/----|-7--7--------------------|
|--------------------------|-------9-7-5-------------|
|--------------------------|-------------7-5~~~------|
|--------------------------|-------------------------|

A#5, C5, C#5, D#5

                                               
|-----------------|-------------------|-----------------|-----------------|
|-----------------|-------------3-3---|-5--------5-8-8-5|-8--10b11-10b11--|
|-----------0-0---|-2-0---0-2/4-----4-|----7-7-7--------|-----------------|
|-2-0---0-2------2|-----2-------------|-----------------|-----------------|
|-----2-----------|-------------------|-----------------|-----------------|
|-----------------|-------------------|-----------------|-----------------|

|------------------------------------|
|-10b11-10b11-10b11-11~~~~-----------|
|------------------------------------|
|------------------------------------|
|------------------------------------|
|------------------------------------|

A#5, C5, C#5, D#5, F5, G5, G#5, A#5(2)

Chord tabs:
 A#5   C5   C#5   D#5   F5   G5   G#5   A#5(2)                             
|-----------------------------------------------------|
|-----------------------------------------------------|
|-2-----4----5----7-----9----11----12----14-----------|
|-2-----4----5----7-----9----11----12----14-----------|
|-0-----2----3----5-----7-----9----10----12-----------|
|-----------------------------------------------------|

|------------------------------------|
|------------------------------------|
|------------------------------------|
|---10--9--10--9--10--9--10--9-------|
|------------------------------------|
|------------------------------------|

CHORUS X2

And at last..

|-2-------2-------|-2-------2-------|-2-----------2---------|
|-1---0---1---0---|-1---0---1---0---|-1-----0-----1-----0---|
|-----------------|-----------------|-----------------------|
|-----------------|-----------------|-----------------------|
|-----------------|-----------------|-----------------------|
|-----------------|-----------------|-----------------------|

About the tab:

b   Bending
r   Release bend
h   Hammering on
p   Pulling off
/   Slide
~   Vibrato
            
Hard to play? Try these video lessons and learn fast. | Correct




comments powered by Disqus
↑ Back to top | Tablatures and chords are parodies/interpretations of the original songs. You may use it for private study, scholarship, research or language learning purposes only