>
 >
Devils Got A New Disguise 1

Devils Got A New Disguise 1 Guitar Tabs

Aerosmith - Devils Got A New Disguise 1 chords, tabs, tablatures, lyrics

Guitar lessons | Add/correct | Request | Top 50 tabs Artists:  A B C D E F G H I J K L M N O P Q R S T U V W X Y Z 0-9

Devils Got A New Disguise 1 Guitar Tabs – Aerosmith

CD, Sheet music, Poster

Do you like Devils Got A New Disguise 1? Share with your friends now
ChordsChords v2TabsTabs v2Ukulele
-------------------------------------------------------------------------------
                                  DEVIL'S GOT A NEW DISGUISE - Aerosmith
-------------------------------------------------------------------------------
                                      _____________________ ___________
Verse Riff:                           |1. 2.              | |3.        |
e|------------|-----------------------|-------------XX-XX--|-----------|
A|x-----------|-----------------------|-------------XX-XX-x|-----------|
G|------------|-----------------------|-------------XX-XX--|-----------|
D|------------|-----------------------|-------------XX-XX--|--2---5----|
A|x-----------|-----------------------|-------------XX-XX-x|--2---5----|
E|--3-5--3-5--|--2-5--2-5---1-5--1-5--|--0-5--0-5---XX-XX--|--0---3----|
Let notes Ring Throughout thrid time.
You could also use Power Chords on this.

                       ___________________   _______________________       
CHORUS:               |1.                 | |2.                     |
e|--------------------|--------------------|------------------------|
B|x-------------------|-------------------x|------------------------|
G|--7----10---3----5--|--7----5---------2--|------------------------|
D|--7----10---3----5--|--7----5----5----2--|-5-7--5-7----5-7--5-7---|
A|x-5----8----1----3--|--5----3----5----0-x|-3-5--3-5----3-5--3-5---|
E|--------------------|------------3-------|------------------------|
Girls so...


Bridge:
e|--------------------|----------------|
B|--------------------|----------------|
G|--9----2----7----9--|--9----2----7---|
D|--9----2----7----9--|--9----2----7---|
A|--7----0----5----7--|--7----0----5---|
E|--------------------|----------------|Into  Verse
We Came...        We Gotta...


Solo:
e|------10-----10-----10-----10-----13p10----10-----13b-13v-|----10h13p10-------|
B|--13b----13b----13b----13b----13b-------13----13b---------|---------------13b-|
G|----------------------------------------------------------|-------------------|
D|----------------------------------------------------------|-------------------|
A|----------------------------------------------------------|-------------------|
E|----------------------------------------------------------|-------------------|

e|--------10-10-10v------------------------------------------------|-----------------------|
B|--10h13------------10-13p10----10-13p10-----------------12p10----|-10-----10-12br-p10----|
G|----------------------------12----------12b-12----10----12p10----|-10-----10-12br-p10----|
D|-----------------------------------------------------12-------12-|----12--------------12-|
A|-----------------------------------------------------------------|-----------------------|
E|-----------------------------------------------------------------|-----------------------|

e|--------------------------------------------|
B|--10-12br-p10-----10----12----10--12-12-10/-|
G|--10-12br-p10-----10----12----10--12-12-10/-|
D|---------------12----12----12---------------|
A|--------------------------------------------|
E|--------------------------------------------|

e|-----------------------------------------|
B|-----------------------------------------|
G|-----------------------------------------|
D|-10p12----10-----------------------------|
A|-------12----12--12p10----12p10----------|
E|-----------------------12-------12v------|

e|-------------------------------------------|
B|--10-13~~~~~-10-----------------------13V--|
G|--10-12b--r--10-12v-12p10----10-12/14------|
D|--------------------------12---------------|
A|-------------------------------------------|
E|-------------------------------------------|

e|-----------------------------------------------|
B|--13v13v13v13v13v13----------------------------|
G|--14v14v14v14v14v14-15b-15b-15b-13----15----13-|
D|-----------------------------------14----14----|
A|-----------------------------------------------|
E|-----------------------------------------------|

e|--------------------------------|
B|--13-15~-13-15~---13-15~-13-15~-|
G|--------------------------------|
D|--------------------------------|
A|--------------------------------|
E|--------------------------------|

That's everything. Enjoy.

-----------------
h - hammer-on
p - pull-off
b - bend
r - release bend
~ - let ring
v - vibrato
-----------------





Comments


Popular Aerosmith tabs & chords
Back In The Saddle 1 Bass Tabs
I Don Want To Miss A Thing Bass Tabs
Pink Bass Tabs
Rats In The Cellar Bass Tabs
S O S Bass Tabs
Dude Looks Like A Lady Drum Tabs
Crazy 4 Tabs
Lightning Strikes Tabs
Rag Doll 2 Tabs
Woman Of The World Tabs


Song lyrics



↑ Back to top | Tablatures and chords are parodies/interpretations of the original songs. You may use it for private study, scholarship, research or language learning purposes only
© 2014 AZChords.com Contact us | Privacy policy | DMCA | Add/correct tabs | Request tabs | Top 50 tabs