» » »

Aerosmith, Cry Me A River Tabs (ver.1)

Artists:  A B C D E F G H I J K L M N O P Q R S T U V W X Y Z # 

Cry Me A River Tabs (ver.1)

Aerosmith Tabs
Rating:
0/5 (0 votes)
Cry Me A River lessons Tabs too difficult? Try these video lessons and learn fast
                (Intro)
"Cry me a River" by Aerosmith



    Em9             Em M7               Am9
|------0-----------------------------|--0----------------------------------|
|------8------------8----------------|--1----------------------------------|
|------11---10--9---8----------------|--4---3--2---1-2-1-2-1-2-1-----------|
|------9------------9----------------|--2----------------------------------|
|-------------------10----------0----|-----------------------------0-------|
|--0---------------------0--3--------|--------------------------------4--3-|

       F#m7b5          B9b5             [Harm]
|-------0---------------1------------|------5-----------------------------|
|-------1---------------1------------|----5-------------------------------|
|-------3---------------2------------|--5---------------------------------|
|-------2----------------------------|------------------------------------|
|--------------1--2------------------|------------------------------------|
|--2--------------------------1---0--|--------------12/0------------------|

      Em9        Em9#5     Em6/9                Em7
|------0----------0---------0--------|-----------0------------------------|
|------8----------8---------8--------|-----------3--------------3--1---3--|
|------11---------11--------10-------|-----------0------------0----0---2--|
|------9----------10--------11-------|-----------2----------2------0---0--|
|------------------------------------|---------------2---0---------0---0--|
|--0----------0----------------------|---0---0----------------------------|

   G              Em7      B7           E9        E
|------------------3-----------------|------------7-----------------------|
|--0---------------3-----------------|--7----7----9-----------------------|
|--0------0--------0-------2---------|--7----7----9-----------------------|
|--0---------------2-------1---------|--6----7----9-----------------------|
|--2---------------2-------2---------|--7----7----7-----------------------|
|--3----------2----0-----------------|------------0-------3---4-----------|

         A7#5           A6                Am7        D9   D     G5
|----------------------------5-------|-----------5------------------------|
|---------6----x--------7--------7---|-----5-----5----5----7/-------------|
|---------6----x--------6------------|-----5-----5----5----7/-------------|
|---------5----x--------7------------|-----5----------4----7/---5---------|
|----0---------x----0----------------|-----7----------5----5/---5---------|
|------------------------------------|--0--5--------------------3---------|

                   E7#9       Em 
|-----------------------------0------|------------------------------------|
|-------------8----6----------0------|------------------------------------|
|-----0-------7----7----------0------|------------------------------------|
|-------------6----6----------2------|------------------------------------|
|-------------7----7-----------------|------------------------------------|
|---------0---------------0----------|------------------------------------|
            
Submit corrections

comments powered by Disqus
↑ Back to top | Aerosmith Tabs for Cry Me A River. Lyrics for acoustic guitar and electric guitar. Tablatures and chords are parodies/interpretations of the original songs. You may use it for private study, scholarship, research or language learning purposes only