» » »

Aerosmith, Beyond Beautiful Tabs (ver.1)

Artists:  A B C D E F G H I J K L M N O P Q R S T U V W X Y Z # 

Beyond Beautiful Tabs (ver.1)

Aerosmith Tabs
 Rating:
3.4/5 (10 votes)
Beyond Beautiful lessons Tabs too difficult? Try these video lessons and learn fast
                Lead Guitar

Tuning: Drop D

Intro:

E|------------------------|
B|------------------------|
G|--10p8--10p8---10-------| x2
D|------------11----10----|
A|------------------------|
E|------------------------|

E|------------------------|
B|------------------------|
G|---------7-7------------| x2
D|-0-0--0--7-7---0-0--0-3-|
A|-0-0--0--5-5---0-0--0-3-|
E|-0-0--0--------0-0--0-3-|

E|------------------------|
B|--13---13p12---12/15----|
G|------------------------| x2
D|------------------------|
A|------------------------|
E|------------------------|

Verse:

E|---------------------------------------------------|
B|--6-6--6-6----6-6--6-6----6-6--6-6--6-6--6-6---6---|
G|--5-5--5-5----5-5--5-5----4-4--4-4--3-3--3-3---5---|
D|---------------------------------------------------|
A|---------------------------------------------------|
E|---------------------------------------------------|

E|------------------------|
B|------------------------|
G|---------7-7------------| x4
D|-0-0--0--7-7---0-0--0-3-|
A|-0-0--0--5-5---0-0--0-3-|
E|-0-0--0--------0-0--0-3-|

E|------------------------|
B|---------6-6------------|
G|---------4-4------------| x1
D|-0-0--0--------0-0--0-3-|
A|-0-0--0--------0-0--0-3-|
E|-0-0--0--------0-0--0-3-|

E|------------------------|
B|---------6-6------------|
G|---------3-3------------| x1
D|-0-0--0--------0-0--0-3-|
A|-0-0--0--------0-0--0-3-|
E|-0-0--0--------0-0--0-3-|

Chorus:

E|-------------------------------------|
B|-------------------------------------|
G|--10p8--10p8---10-----10-8---10-10---|  x8
D|------------11----10-------10--------|
A|-------------------------------------|
E|-------------------------------------|

Repeat Verse

Then:

E|------------------------|
B|--13---13p12------------|
G|------------------------|
D|------------------------|
A|------------------------|
E|------------------------|


Repeat Chorus

Solo

I will post:
Bridge
Chorus 3
And the rest

Later

Hope this helps for now
            
Submit corrections

comments powered by Disqus
↑ Back to top | Aerosmith Tabs for Beyond Beautiful. Lyrics for acoustic guitar and electric guitar. Tablatures and chords are parodies/interpretations of the original songs. You may use it for private study, scholarship, research or language learning purposes only