>
 >
Traceys Big Moment

Traceys Big Moment Guitar Tabs

Adrian Legg - Traceys Big Moment chords, tabs, tablatures, lyrics

Guitar lessons | Add/correct | Request | Top 50 tabs Artists:  A B C D E F G H I J K L M N O P Q R S T U V W X Y Z 0-9

Traceys Big Moment Guitar Tabs – Adrian Legg

CD, Sheet music, Poster

Do you like Traceys Big Moment? Share with your friends now
Tabs


Arranged by:  Bob Carter

p=pull off
h=hammer on
ha=harmonic
s=slide

This is by no means necessarily 100% correct, but does seem to play through nicely and sound pretty much 
it should.  It's all straightforward.  My transcription doesn't include any timing notation but mostly this 
obvious from the recording. If I can help interpret any of it please write and ask.

Notes:
1.  This is one of those little filler bits between the intro and the main tune - I can never get it to 
right, so I just leave it out.

2.  This is actually 4 bars written as 2 because it seemed easier visually - the way I play the first half 
to fret the Bminor shape with fingers 2,3, and 4 while the bass moves from B to Bflat, then change to 
fingers 1,2, and 3 for the minor shape when the bass is on open A so you can then stretch your 4th finger over to reach the 6th fret on the bottom string.

3.  The timing in this bar changes from 4/4 to 12/8 half way through and continues that way until the 
towards the end.  The whole of this "Spanishy" bit before it moves back into the main tune is a bit of a 
job - again, it never seems to sound right, possibly because I'm playing an unamped acoustic and it's just too thin.

4.  Again, the chord ending is an approximation - get the general feel from the recording.


TRACY'S BIG MOMENT
==================

1.
E-|------2p0-----0-------------------|----------------------------------|
B-|----3-----3-----------2-------0---|-------0-------0-12ha----12ha-12ha|
G-|--2---------2-------2-------2-----|-----0-------0---12ha----12ha-12ha|
D-|0-----------------2-------2-------|---0-------0----------------------|
A-|----------------0-------0---------|----------------0-----0-0---------|
D-|----------------------------------|-5-------5------------------------|

2.
E-|------2p0-----0-------------------|----------------------------------|
B-|----3-----3-----------2-------0---|-------0-------0--5s7---7s5-5-----|
G-|--2---------2-------2-------2-----|-----0-------0--------------------|
D-|0-----------------2-------2-------|---0-------0------5s7---7s5-5-----|
A-|----------------0-------0---------|----------------0-----0-----------|
D-|----------------------------------|-5-------5------------------------|

3.
E-|-------0-----2---------0----------|----------------------------------|
B-|-3--------------2-------------2---|-0--0----0--12ha----12ha-12ha--5ha|
G-|-----2---------------2------------|---0----0---12ha----12ha-12ha--5ha|
D-|---0-------0--0----2--------2---2-|--0----0--------------------------|
A-|----------------0--------0--------|------------0----0-0--------------|
D-|-0-------0------------------------|-5----5---------------------------|

4.
Note1
E-|-7-3------------------------------|
B-|----5p3---------------------------|
G-|-------4p2-0-4--------------------|
D-|----------------------------------|
A-|----------------------------------|
D-|----------------------------------|

5.
E-|----------------------------------|----------------------------------|
B-|-2-----3------3-2-----2-----3-----|-0-----0-------0-------0-------0--|
G-|-----2------2-------2-------------|-----0-------0-------0-------0----|
D-|---0------0-------0-------0---0---|---0-------0-------0-------0------|
A-|----------------------------------|----------------------------------|
D-|-0-------0------4-------4---------|-5-------5-------4-------4--------|

6.
E-|-3-----3-------3-2-----2-----0----|-0-----0-------0-0-----0-------0--|
B-|-----0-------0-------0------------|-----3-------3-------2-------2----|
G-|---0-------0-------0-------0---0--|---0-------0-------0-------0------|
D-|----------------------------------|----------------------------------|
A-|-----------------2-------2--------|-0-------0-------0-------0--------|
D-|-2-------2------------------------|----------------------------------|

7.
E-|-5-----5-------5-5-----5-------2--|----------------------------------|
B-|-----2-------2-------2-------2----|-3-----3-------3-------3-------2--|
G-|---2-------2-------2-------2------|-----4-------4-------4-------4----|
D-|-4-------4-------2-------4--------|---4-------4-------4-------4------|
A-|----------------------------------|-2-------2-------0-------0--------|
D-|----------------------------------|----------------------------------|

8.
E-|-3-----3-2-----2-0-----0----------|-----------------------------0----|
B-|-----0-------0-------0---3-----3--|-3-----3-------3-2-----3----------|
G-|---0-------0-------0---------0----|-----0-------0-------0------------|
D-|-5-------4-------2---------0------|---2-------2-------2-------2------|
A-|-------------------------2--------|-0-------0-------0-------0--------|
D-|----------------------------------|----------------------------------|

9.
E-|----------------------------------|----------------------------------|
B-|-2-----3------3-2-----2-----3-----|-0-----0-------0-------0-------0--|
G-|-----2------2-------2-------------|-----0-------0-------0-------0----|
D-|---0------0-------0-------0---0---|---0-------0-------0-------0------|
A-|----------------------------------|----------------------------------|
D-|-0-------0------4-------4---------|-5-------5-------4-------4--------|

10.
E-|-3-----3-------3-2-----2-----0----|-0-----0-------0-0-----0-------0--|
B-|-----0-------0-------0------------|-----3-------3-------2-------2----|
G-|---0-------0-------0-------0---0--|---0-------0-------0-------0------|
D-|----------------------------------|----------------------------------|
A-|-----------------2-------2--------|-0-------0-------0-------0--------|
D-|-2-------2------------------------|----------------------------------|

11.
E-|-5-----5-------5-5-----5-------2--|-2-----2-------2-3-----3-5-----5--|
B-|-----2-------2-------2-------2----|-----1-------1-------1-------4----|
G-|---2-------2-------2-------2------|---2-------2-------2-------5------|
D-|-4-------4-------2-------4--------|-1-------1-------1-------4--------|
A-|----------------------------------|----------------------------------|
D-|----------------------------------|----------------------------------|

12.
E-|-3-----3-------3-3-----3-2-----2--|-0-----0-------0-0-----0-------0--|
B-|-----0-------0-------0-------0----|-----3-------3-------2-------2----|
G-|---0-------0-------0-------0------|---0-------0-------0-------0------|
D-|-2-------2-------0-------0--------|----------------------------------|
A-|----------------------------------|-0-------0-------0-------0--------|
D-|----------------------------------|----------------------------------|

13.
E-|----------------------------------|----------------------------------|
B-|-2-----3------3-2-----2-----3-----|-0-----0-------0-------0-------0--|
G-|-----2------2-------2-------------|-----0-------0-------0-------0----|
D-|---0------0-------0-------0---0---|---0-------0-------0-------0------|
A-|----------------------------------|----------------------------------|
D-|-0-------0------4-------4---------|-5-------5-------4-------4--------|

14.
E-|-3-----3-------3-2-----2-----0----|-0-----0-------0-0-----0-------0--|
B-|-----0-------0-------0------------|-----3-------3-------2-------2----|
G-|---0-------0-------0-------0---0--|---0-------0-------0-------0------|
D-|----------------------------------|----------------------------------|
A-|-----------------2-------2--------|-0-------0-------0-------0--------|
D-|-2-------2------------------------|----------------------------------|

15.
E-|-5-----5-------5-5-----5-------2--|----------------------------------|
B-|-----2-------2-------2-------2----|-3-----3-------3-------3-------2--|
G-|---2-------2-------2-------2------|-----4-------4-------4-------4----|
D-|-4-------4-------2-------4--------|---4-------4-------4-------4------|
A-|----------------------------------|-2-------2-------0-------0--------|
D-|----------------------------------|----------------------------------|

16.
E-|-3-----3-2-----2-0-----0-7-----7--|-7-----7-------7-5-----5-------5--|
B-|-----0-------0-------0-------5----|-----5-------5-------5-------5----|
G-|---0-------0-------0-------7------|---7-------7-------6-------6------|
D-|-5-------4-------2----------------|----------------------------------|
A-|----------------------------------|-0-------0-------0-------0--------|
D-|-------------------------6--------|----------------------------------|

17.
Note 2
E-|-----------0--------------0-------|-------3-2------------------------|
B-|-------2---------2----2---------2-|---3-------5p3-------3-----2------|
G-|-----4---4-----4-----4--4-----4---|---4-4-------------0-------0------|
D-|---4---------4------4-------4-----|---5-5-----------2-------2-2------|
A-|-2------2--1-------0---0----------|---------------0-------0---0--0h1-|
D-|--------------------------6-------|-5--5--5---5----------------------|

18.
E-|----------0-------------------0---|
B-|----0-3-0-------3-------3-----3---|
G-|---4----------4-------4-----4-4---|
D-|--4---------4-------4-------------|
A-|-2----2-----------2-------2-------|
D-|----------2-------------------2---|

19.
E-|----------0-------------------0---|
B-|----0-3-0-------3-------3-----3---|
G-|---4----------4-------4-----4-4---|
D-|--4---------4-------4-------------|
A-|-2----2-----------2-------2-------|
D-|----------2-------------------2---|

20.
E-|-----------0-1-----3--------------|-------3-------5------------------|
B-|-1-----3---------1----------------|-3---------3---5------------------|
G-|-----0---------2------------------|-----3---------5------------------|
D-|---2---------3-------3------------|---3------------------------------|
A-|-3-------3------------------------|-3-------3-----8------------------|
D-|----------------------------------|----------------------------------|

21.
E-|-1-----1------1-3-----3-----------|-3----3------3-5-----5------------|
B-|-----3------3-------2-------------|-----2-----2-------4--------------|
G-|---3------3-------3---------------|---3-----3-------5----------------|
D-|-0-------0------1-------1---------|-2-----2-------3-------3----------|
A-|----------------------------------|----------------------------------|
D-|----------------------------------|----------------------------------|

22.
E-|-5-----5-------5-6-----6-------6--|-6-----6------6-3-----3-------3---|
B-|-----4-------4-------3-------3----|-----3-------3------2-------2-----|
G-|---5-------5-------3-------3------|---3-------3------3-------3-------|
D-|-4-------4-------5-------5--------|-3-------3------1-------1---------|
A-|----------------------------------|----------------------------------|
D-|----------------------------------|----------------------------------|

23.
E-|-------3-------3-3-----3-------3--|-------3-------3-3-----3-------3--|
B-|-----2-------2-------2-------2----|-----2-------2-------2-------2----|
G-|---3-------3-------3-------3------|---3-------3-------3-------3------|
D-|-1-------1-------2-------2--------|-2-------2-------3-------3--------|
A-|----------------------------------|----------------------------------|
D-|----------------------------------|----------------------------------|

24.
E-|-------3-------3-|-1-----3-----0---3-----1---------------------------|
B-|-----2-------2---|-----1---------------1-----------------------------|
G-|---3-------3-----|---2-------2---2---2-------------------------------|
D-|-3-------3-------|-3-------3-------3-------3-------------------------|
A-|-----------------|---------------------------------------------------|
D-|-----------------|---------------------------------------------------|

25.
E-|-1-----1-----0---3-----1----------|-1-----1-----0---3-----1----------|
B-|-----1---------------1------------|-----3---------------3------------|
G-|---2-------2---2---2--------------|---3-------3---3---3--------------|
D-|-1-------1-------1-------1--------|-0-------0-------0-------0--------|
A-|----------------------------------|----------------------------------|
D-|----------------------------------|----------------------------------|

26.
E-|-3-----3-------3-1-----1-------1--|----------------------------------|
B-|-----3-------3-------3-------3----|-4-----4-------4-3-----3-------3--|
G-|---3-------3-------3-------3------|-----5-------5-------3-------3----|
D-|-1-------1-------0-------0--------|---5-------5-------3-------3------|
A-|----------------------------------|-3-------3-------1-------1--------|
D-|----------------------------------|----------------------------------|

27.
Note 3
E-|----------------------------------|----------------------------------|
B-|-------3-------3---3---3--3--3----|---2--2--2--2--3--3--3------------|
G-|-----3-------3----3---3--3--3-----|--2--2--2--2--3--3--3-------------|
D-|---3-------3---------3-----3------|----2-----2-----3-----3h5p3-------|
A-|-0-------0-------0------0---------|-0-----0-----0-----0--------------|
D-|----------------------------------|----------------------------------|

28.
E-|----------------------------------|----------------------------------|
B-|---3--3--3--3--3--------3---------|---2-------2-------3-------3------|
G-|--3--3--3--3--3--------3----------|--2-------2-------3-------3-------|
D-|----5-----5-----3h5p3----3h5p3----|----2h3p2---2h3p2---3h5p3---3h5p3-|
A-|-0-----0----0---------0-----------|-0-------0-------0-------0--------|
D-|----------------------------------|----------------------------------|

29.
E-|----------------------------------|-------------------3--3--3--3-----|
B-|---3--3--3--3--3--3--3------------|---2-------2------2--2--2--2------|
G-|--3--3--3--3--3--3--3-------------|--2-------2---------2-----2-------|
D-|----5-----5-----3-----3h5p3-------|----2h3p2---2h3p2-----------------|
A-|-0-----0-----0-----0--------------|-0-------0-------0-----0----------|
D-|----------------------------------|----------------------------------|

30.
E-|----------------------------------|
B-|---3--3----2--2-------------------|
G-|--0--0---0---0--------------------|
D-|----2-------2---------------------|
A-|-0------0-------------------------|
D-|----------------------------------|

31.
E-|----------------------------------|----------------------------------|
B-|---3--3--3--3--2--2--3--3---------|---0--0--0--0--0--0--0--0---------|
G-|--2--2--2--2--2--2--2--2----------|--0--0--0--0--0--0--0--0----------|
D-|----0-----0-----0-----0-----------|----0-----0-----0-----0-----------|
A-|----------------------------------|----------------------------------|
D-|-0-----0-----4-----4--------------|-5-----5-----4-----4--------------|

32.
E-|---3--3--3--3--2--2--0--0---------|---0--0--0--0--0--0--0--0---------|
B-|--0--0--0--0--0--0--0--0----------|--3--3--3--3--2--2--2--2----------|
G-|----0-----0-----0-----0-----------|----0-----0-----0-----0-----------|
D-|----------------------------------|----------------------------------|
A-|-------------2-----2--------------|-0-----0-----0-----0--------------|
D-|-2-----2--------------------------|----------------------------------|

33.
E-|---5--5--5--5--5--5--5--2---------|----------------------------------|
B-|--2--2--2--2--2--2--2--2----------|---3--3--3--3--3--3--3---3--------|
G-|----2-----2-----2-----2-----------|--4--4--4--4--4--4--4--4----------|
D-|-4-----4-----2-----4--------------|----4-----4-----4-----4-----------|
A-|----------------------------------|-2-----2-----0-----0--------------|
D-|----------------------------------|----------------------------------|

34.
E-|---3--3--2--3--0--2---------------|----------------------------------|
B-|--0--0--0--0--0--0---3--3---------|---3--3--3--3---2--2--2--2--------|
G-|----0-----0-----0---0--0----------|--0--0--0--0---0--0--0--0---------|
D-|-5-----4-----2--------0-----------|----2-----2------2-----2----------|
A-|-------------------2--------------|-0-----0------0-----0-------------|
D-|----------------------------------|----------------------------------|

35.
E-|----------------------------------|----------------------------------|
B-|---3--3--3--3--2--2--3--3---------|---0--0--0--0--0--0--0--0---------|
G-|--2--2--2--2--2--2--2--2----------|--0--0--0--0--0--0--0--0----------|
D-|----0-----0-----0-----0-----------|----0-----0-----0-----0-----------|
A-|----------------------------------|----------------------------------|
D-|-0-----0-----4-----4--------------|-5-----5-----4-----4--------------|

36.
E-|---3--3--3--3--2--2--0--0---------|---0--0--0--0--0--0--0--0---------|
B-|--0--0--0--0--0--0--0--0----------|--3--3--3--3--2--2--2--2----------|
G-|----0-----0-----0-----0-----------|----0-----0-----0-----0-----------|
D-|----------------------------------|----------------------------------|
A-|-------------2-----2--------------|-0-----0-----0-----0--------------|
D-|-2-----2--------------------------|----------------------------------|

37.
E-|---5--5--5--5--5--5--5--2---------|---2--2--2--2--3--3--5--5---------|
B-|--2--2--2--2--2--2--2--2----------|--1--1--1--1--1--1--4--4----------|
G-|----2-----2-----2-----2-----------|----2-----2-----2-----5-----------|
D-|-4-----4-----2-----4--------------|-1-----1-----1-----4--------------|
A-|----------------------------------|----------------------------------|
D-|----------------------------------|----------------------------------|

38.
E-|---3--3--3--3--3--3--2--2---------|---0--0--0--0--0--0--0--0---------|
B-|--0--0--0--0--0--0--0--0----------|--3--3--3--3--2--2--2--2----------|
G-|----0-----0-----0-----0-----------|----0-----0-----0-----0-----------|
D-|-2-----2-----0-----0--------------|----------------------------------|
A-|----------------------------------|-0-----0-----0-----0--------------|
D-|----------------------------------|----------------------------------|

39.
E-|----------------------------------|----------------------------------|
B-|---3--3--3--3--2--2--3--3---------|---0--0--0--0--0--0--0--0---------|
G-|--2--2--2--2--2--2--2--2----------|--0--0--0--0--0--0--0--0----------|
D-|----0-----0-----0-----0-----------|----0-----0-----0-----0-----------|
A-|----------------------------------|----------------------------------|
D-|-0-----0-----4-----4--------------|-5-----5-----4-----4--------------|

40.
E-|---3--3--3--3--2--2--0--0---------|---0--0--0--0--0--0--0--0---------|
B-|--0--0--0--0--0--0--0--0----------|--3--3--3--3--2--2--2--2----------|
G-|----0-----0-----0-----0-----------|----0-----0-----0-----0-----------|
D-|----------------------------------|----------------------------------|
A-|-------------2-----2--------------|-0-----0-----0-----0--------------|
D-|-2-----2--------------------------|----------------------------------|

41.
E-|---5--5--5--5--5--5--5--2---------|----------------------------------|
B-|--2--2--2--2--2--2--2--2----------|---3--3--3--3--3--3--3---3--------|
G-|----2-----2-----2-----2-----------|--4--4--4--4--4--4--4--4----------|
D-|-4-----4-----2-----4--------------|----4-----4-----4-----4-----------|
A-|----------------------------------|-2-----2-----0-----0--------------|
D-|----------------------------------|----------------------------------|

42.
E-|---3--3--2--3--0--2---7--7--------|---7--7--7--7--5--5--5--5---------|
B-|--0--0--0--0--0--0---5--5---------|--5--5--5--5--5--5--5--5----------|
G-|----0-----0-----0------7----------|----7-----7-----6-----6-----------|
D-|-5-----4-----2--------------------|----------------------------------|
A-|----------------------------------|-0-----0-----0-----0--------------|
D-|--------------------6-------------|----------------------------------|

43.
E-|-----------0--------------0-------|-------3-2------------------------|
B-|-------2---------2----2---------2-|---3-------5p3-------3-----2------|
G-|-----4---4-----4-----4--4-----4---|---4-4-------------0-------0------|
D-|---4---------4------4-------4-----|---5-5-----------2-------2-2------|
A-|-2------2--1-------0---0----------|---------------0-------0---0--2h4-|
D-|--------------------------6-------|-5--5--5---5----------------------|

44.
E-|------2p0-----0-------------------|----------------------------------|
B-|----3-----3-----------2-------0---|-------0-------0-12ha----12ha-12ha|
G-|--2---------2-------2-------2-----|-----0-------0---12ha----12ha-12ha|
D-|0-----------------2-------2-------|---0-------0----------------------|
A-|----------------0-------0---------|----------------0-----0-0---------|
D-|----------------------------------|-5-------5------------------------|

45.
E-|------2p0-----0-------------------|----------------------------------|
B-|----3-----3-----------2-------0---|-------0-------0--5s7---7s5-5-----|
G-|--2---------2-------2-------2-----|-----0-------0--------------------|
D-|0-----------------2-------2-------|---0-------0------5s7---7s5-5-----|
A-|----------------0-------0---------|----------------0-----0-----------|
D-|----------------------------------|-5-------5------------------------|

46.
E-|-------0-----2---------0----------|----------------------------------|
B-|-3--------------2-------------2---|-0--0----0--12ha----12ha-12ha--5ha|
G-|-----2---------------2------------|---0----0---12ha----12ha-12ha--5ha|
D-|---0-------0--0----2--------2---2-|--0----0--------------------------|
A-|----------------0--------0--------|------------0----0-0--------------|
D-|-0-------0------------------------|-5----5---------------------------|

47.
E-|-7-3------------------------------|
B-|----5p3---------------------------|
G-|-------4p2-0-4--------------------|
D-|----------------------------------|
A-|----------------------------------|
D-|----------------------------------|

48.
Note 4
E-|----------------------------------|-10-9--7-5-3-2--------------------|
B-|-3-5-7-8-10-----------------------|-10-10-8-7-3-3--------------------|
G-|-2-6-7-9-11-----------------------|-11-9--7-7-4-2--------------------|
D-|----------------------------------|-0--0--0-0-0-0--------------------|
A-|----------------------------------|-0--0--0-0-0-0--------------------|
D-|-0--------------------------------|-0--0--0-0-0-0--------------------|





Comments


Popular Adrian Legg tabs & chords
Silent Night The Movie Chords
Anu Tabs
Kinvarras Child Tabs
Last Track Tabs
Last Track 1 Tabs
Mrs Jacks Last Stand Tabs
Nail Talk Tabs
Nanci Tabs
Silent Night The Movie Ukulele


Song lyrics



↑ Back to top | Tablatures and chords are parodies/interpretations of the original songs. You may use it for private study, scholarship, research or language learning purposes only
© 2014 AZChords.com Contact us | Privacy policy | DMCA | Add/correct tabs | Request tabs | Top 50 tabs