» » »

Adrian Legg, Anu Tabs (ver.1)

Artists:  A B C D E F G H I J K L M N O P Q R S T U V W X Y Z # 

Anu Tabs (ver.1)

Adrian Legg Tabs
Rating:
0/5 (0 votes)
Anu lessons Tabs too difficult? Try these video lessons and learn fast
                

ANU by Adrian Legg from Guitar for Mortals


transcribed originally by Dan Baderman, alterations made by Bob Carter

Notes:  This transcription is a development of an existing OLGA tab by Dan
Baderman.  Looking at his transcription and at the "Tunings" page of the
Leggheads site, I was forced to re-do my original version of this which
was in open D tuning and consequent ly less than fluid.  According to the
man himself, this piece is in DADGBD, not DADF#AD as I had it or DADGBE as
Dan had it.  My transcription has lifted parts of Dan's wholesale (except
for compensating for the tuning change) and done others slightly dif
ferently.  It seems to sound pretty much right but should not be taken as
100% accurate.  There is no timing notation - it's all fairly
straightforward and best got from the recording.  Hope it is of some use.
If you haven't already done so, you might li ke to try out Dan's
transcription too and come up with your own compromise.

NB:  This is an updated version of my original transcription, following
some very useful suggestions from "Acoustic" Bob Salsburg, who pointed out
some errors and has a better ear for detail than me!  Thanks to him I
think the phrasing flows better and is
corrections/improvements.

ANU
===

1.
D-|-------------------------|-------------------------|
B-|-------3-5p3-------3-5p3-|-------3---5p3-------3-2-|
G-|-----2-----------2-------|-----0-------------0-0-0-|
D-|---0----0------0----4----|---0-----0-------4-----2-|
A-|-------------2-----------|---------------0------0--|
D-|-0-----------------------|-5-----------------------|

2.
D-|-------------------------|-------------------------|
B-|-------3-5p3-------3-5p3-|-------3---5p3-------3-2-|
G-|-----2-----------2-------|-----0-------------0-0-0-|
D-|---0----0------0----4----|---0-----0-------4-----2-|
A-|-------------2-----------|---------------0------0--|
D-|-0-----------------------|-2-----------------------|

3.
D-|-----7p4p0---2---4-----2-|-0--------------------|
B-|----------------3-----3--|-------0-3h5--2--3/5--|
G-|---------------2-----2---|-----0--------0-------|
D-|---0---------------------|---0----------2--4/5--|
A-|--0----------------------|--------------0-------|
D-|-0--------0--4-----4-----|-5-------5------------|

4.
D-|-----7p4p0---2---4-----2-|-0--------------------|
B-|----------------3-----3--|-------0-3h5--2--3/5--|
G-|---------------2-----2---|-----0--------0-------|
D-|---0---------------------|---0----------2--4/5--|
A-|--0----------------------|--------------0-------|
D-|-0--------0--4-----4-----|-2-------5------------|

5.
D-|-----7p4p0---2---4-----2-|-0--------------------|
B-|----------------3-----3--|-------0-3h5--2-------|
G-|---------------2-----2---|-----0--------0-------|
D-|---0---------------------|---0----------2------0|
A-|--0----------------------|--------------0-0h2h4-|
D-|-0--------0--4-----4-----|-5-------5------------|

6.
D-|-------------------------|-------------------------|
B-|-------3-5p3-------3-5p3-|-------3---5p3-------3-2-|
G-|-----2-----------2-------|-----0-------------0-0-0-|
D-|---0----0------0----4----|---0-----0-------4-----2-|
A-|-------------2-----------|---------------0------0--|
D-|-0-----------------------|-5-----------------------|

7.
D-|-------------------------|-------------------------|
B-|-------3-5p3-------3-5p3-|-------3---5p3-------3-2-|
G-|-----2-----------2-------|-----0-------------0-0-0-|
D-|---0----0------0----4----|---0-----0-------4-----2-|
A-|-------------2-----------|---------------0------0--|
D-|-0-----------------------|-2-----------------------|

8.
D-|-----7p4p0---2---4-----2-|-0--------------------|
B-|----------------3-----3--|-------0-3h5--2--3/5--|
G-|---------------2-----2---|-----0--------0-------|
D-|---0---------------------|---0----------2--4/5--|
A-|--0----------------------|--------------0-------|
D-|-0--------0--4-----4-----|-5-------5------------|

9.
D-|-----7p4p0---2---4-----2-|-0--------------------|
B-|----------------3-----3--|-------0-3h5--2--3/5--|
G-|---------------2-----2---|-----0--------0-------|
D-|---0---------------------|---0----------2--4/5--|
A-|--0----------------------|--------------0-------|
D-|-0--------0--4-----4-----|-5-------5------------|

10.
D-|-----7p4p0---2---4-----2-|-0--------------------|
B-|----------------3-----3--|-------0-3h5--2-------|
G-|---------------2-----2---|-----0--------0-------|
D-|---0---------------------|---0----------2------0|
A-|--0----------------------|--------------0-0h2h4-|
D-|-0--------0--4-----4-----|-5-------5------------|

11.
D-|-------------------------|-------------------------|
B-|-------3-5p3-------3-5p3-|-------3---5p3-------3-2-|
G-|-----2-----------2-------|-----0-------------0-0-0-|
D-|---0----0------0----4----|---0-----0-------4-----2-|
A-|-------------2-----------|---------------0------0--|
D-|-0-----------------------|-5-----------------------|


12.
D-|-------------------------|-------------------------|
B-|-------3-5p3-------3-5p3-|-------3---5p3-------3-2-|
G-|-----2-----------2-------|-----0-------------0-0-0-|
D-|---0----0------0----4----|---0-----0-------4-----2-|
A-|-------------2-----------|---------------0------0--|
D-|-0-----------------------|-2-----------------------|

13.
E-|-------------------------------|-------------------2--------------------|
B-|-------3-----0---------3------3|--------3-------------------3---------3-|
G-|-----2-----2---------0------0--|------2---------2----------2--------2---|
D-|---0-----0---------0------0----|----0--------0-----------0--------0-----|
A-|-----------------2------2------|--------------------------------3-------|
D-|-0------0----------------------|-0--------0-----------0-----------------|

14.
D-|------------------------------|--------------------------------|
B-|-------3---5p3--------3---5p3-|-------3---5p3--0-----0-------0-|
G-|-----0--------0-----0--------0|-----0--------0-----0-------0---|
D-|---4-----4--------4-----4-----|---4-----4--------0-------0-----|
A-|-2--------------3-------------|-2------------------------------|
D-|------------------------------|----------------5-------5-------|

15.
D-|-2-----2-0-----0--2-----2--5------5-|-5-----5-------5--4-----4-2-----0-|
B-|-----1-------0--------1----5----5---|-----3-------3--------3-------3---|
G-|---0-------0--------0---------0-----|---2-------2--------2-------0-----|
D-|------------------------------------|-0-------0--------0---------------|
A-|-3-------2--------3--------7--------|--------------------------3-------|
D-|------------------------------------|----------------------------------|

16.
D-|------------------------------|--------------------------------|
B-|-------3---5p3--------3---5p3-|-------3---5p3--0-----0-------0-|
G-|-----0--------0-----0--------0|-----0--------0-----0-------0---|
D-|---4-----4--------4-----4-----|---4-----4--------0-------0-----|
A-|-2--------------3-------------|-2------------------------------|
D-|------------------------------|----------------5-------5-------|

17.
D-|-2-----2-0-----0--2-----2--5------5-|-7-----7-------7--7-----7-------7-|
B-|-----1-------0--------1----5----5---|-----8-------8--------7-------7---|
G-|---0-------0--------0---------0-----|---7-------7--------7-------7-----|
D-|------------------------------------|-0-------0--------0-------0-------|
A-|-3-------2--------3--------7--------|----------------------------------|
D-|------------------------------------|----------------------------------|

18.
D-|--------5h7p5---------5h7p5-|--------5h7p5--------5h7p5--|
B-|------0-------------0-------|------0------------0--------|
G-|----0-------------0---------|----0------------0----------|
D-|----------------------------|----------------------------|
A-|--7------------8------------|--7------------6------------|
D-|----------------------------|----------------------------|


19.
D-|--4-----4--0-----0--2-----2--5-----5-|-4-----4--0-----0--2-----2--------0--|
B-|------3--------0--------1--------5---|-----3--------0--------1--------0----|
G-|----0--------0--------0--------0-----|---0--------0--------0--------0------|
D-|-------------------------------------|-------------------------------------|
A-|--5--------2--------3--------7-------|-5--------2--------3--------2--------|
D-|-------------------------------------|-------------------------------------|

20.
D-|------------------------------|-------------------------------|
B-|-------1---3p1-------1-------1|-------3---5p3-------3-------3-|
G-|-----2--------2----2-------2--|-----2--------2----2-------2---|
D-|---2-----2-------2-------2----|---3-----3-------3-------3-----|
A-|-0-------------0-------0------|-0-------------0-------0-------|
D-|------------------------------|-------------------------------|

21.
D-|------------------------------|--------------------------------|
B-|-------1---3p1-------1-------1|--------1--3p1--------1-------1-|
G-|-----2-------------2-------2--|------2-------------2-------2---|
D-|---2-----2-------2-------2----|----0-------------0-------0-----|
A-|-0-------------0-------0------|------------------------3-------|
D-|------------------------------|--0------0------0---------------|

22.
D-|------------------------------|--------------------------------|
B-|-------3---5p3--------3---5p3-|-------3---5p3--0-----0-------0-|
G-|-----0--------0-----0--------0|-----0--------0-----0-------0---|
D-|---4-----4--------4-----4-----|---4-----4--------0-------0-----|
A-|-2--------------3-------------|-2------------------------------|
D-|------------------------------|----------------5-------5-------|

23.
D-|-2-----2-0-----0--2-----2--5------5-|-7-----7-------7--7-----7-------7-|
B-|-----1-------0--------1----5----5---|-----8-------8--------7-------7---|
G-|---0-------0--------0---------0-----|---7-------7--------7-------7-----|
D-|------------------------------------|-0-------0--------0-------0-------|
A-|-3-------2--------3--------7--------|----------------------------------|
D-|------------------------------------|----------------------------------|

24.
D-|--------5h7p5---------5h7p5-|--------5h7p5--------5h7p5--|
B-|------0-------------0-------|------0------------0--------|
G-|----0-------------0---------|----0------------0----------|
D-|----------------------------|----------------------------|
A-|--7------------8------------|--7------------6------------|
D-|----------------------------|----------------------------|

25.
D-|--4-----4--0-----0--2-----2--5-----5-|-4-----4--0-----0--2-----2--------0--|
B-|------3--------0--------1--------5---|-----3--------0--------1--------0----|
G-|----0--------0--------0--------0-----|---0--------0--------0--------0------|
D-|-------------------------------------|-------------------------------------|
A-|--5--------2--------3--------7-------|-5--------2--------3--------2--------|
D-|-------------------------------------|-------------------------------------|


26.
D-|-------------------------------------------------------------------|
B-|-2---2-3-5--s12-12-10-8----2-2--3--5-6-5-4-5-7-5-4-5-6-5-4-5-------|
G-|-0---0-0-0---0--0---0-0----0-0--0--0-0-0-0-0-0-0-0-0-0-0-0-0-------|
D-|---------------------------2-2--4--5-6-5-4-5-7-5-4-5-6-5-4-5-------|
A-|-0---0-2-4--s10-10--9-7----0----------------------------------0h2h4|
D-|-------------------------------------------------------------------|

27.
D-|-------------------------|-------------------------|
B-|-------3-5p3-------3-5p3-|-------3---5p3-------3-2-|
G-|-----2-----------2-------|-----0-------------0-0-0-|
D-|---0----0------0----4----|---0-----0-------4-----2-|
A-|-------------2-----------|---------------0------0--|
D-|-0-----------------------|-5-----------------------|

28.
D-|-------------------------|-------------------------|
B-|-------3-5p3-------3-5p3-|-------3---5p3-------3-2-|
G-|-----2-----------2-------|-----0-------------0-0-0-|
D-|---0----0------0----4----|---0-----0-------4-----2-|
A-|-------------2-----------|---------------0------0--|
D-|-0-----------------------|-2-----------------------|

29.
D-|-----7p4p0---2---4-----2-|-0--------------------|
B-|----------------3-----3--|-------0-3h5--2--3/5--|
G-|---------------2-----2---|-----0--------0-------|
D-|---0---------------------|---0----------2--4/5--|
A-|--0----------------------|--------------0-------|
D-|-0--------0--4-----4-----|-5-------5------------|

30.
D-|-----7p4p0---2---4-----2-|-0--------------------|
B-|----------------3-----3--|-------0-3h5--2--3/5--|
G-|---------------2-----2---|-----0--------0-------|
D-|---0---------------------|---0----------2--4/5--|
A-|--0----------------------|--------------0-------|
D-|-0--------0--4-----4-----|-5-------5------------|

31.
D-|-----7p4p0---2---4-----2-|-0-------------------------|
B-|----------------3-----3--|-------0-3h5--2--3/5-------|
G-|---------------2-----2---|-----0--------0------------|
D-|---0---------------------|---0----------2--4/5------0|
A-|--0----------------------|--------------0------0h204-|
D-|-0--------0--4-----4-----|-5-------5-----------------|

32.
D-|-------------------------|-------------------------|
B-|-------3-5p3-------3-5p3-|-------3---5p3-------3-2-|
G-|-----2-----------2-------|-----0-------------0-0-0-|
D-|---0----0------0----4----|---0-----0-------4-----2-|
A-|-------------2-----------|---------------0------0--|
D-|-0-----------------------|-5-----------------------|

33.
D-|-------------------------|-------------------------|
B-|-------3-5p3-------3-5p3-|-------3---5p3-------3-2-|
G-|-----2-----------2-------|-----0-------------0-0-0-|
D-|---0----0------0----4----|---0-----0-------4-----2-|
A-|-------------2-----------|---------------0------0--|
D-|-0-----------------------|-2-----------------------|

34.
D-|-----7p4p0---2---4-----2-|-0--------------------|
B-|----------------3-----3--|-------0-3h5--2--3/5--|
G-|---------------2-----2---|-----0--------0-------|
D-|---0---------------------|---0----------2--4/5--|
A-|--0----------------------|--------------0-------|
D-|-0--------0--4-----4-----|-5-------5------------|

35.
D-|-----7p4p0---2---4-----2-|-0--------------------|
B-|----------------3-----3--|-------0-3h5--2--3/5--|
G-|---------------2-----2---|-----0--------0-------|
D-|---0---------------------|---0----------2--4/5--|
A-|--0----------------------|--------------0-------|
D-|-0--------0--4-----4-----|-5-------5------------|
36.
D-|-----7p4p0---2---4-----2-|-0-------------------------|
B-|----------------3-----3--|-------0-3h5--2--3/5-------|
G-|---------------2-----2---|-----0--------0------------|
D-|---0---------------------|---0----------2--4/5------0|
A-|--0----------------------|--------------0------0h2h4-|
D-|-0--------0--4-----4-----|-5-------5-----------------|

37.
D-|-------------------------|-------------------------|
B-|-------3-5p3-------3-5p3-|-------3---5p3-------3-2-|
G-|-----2-----------2-------|-----0-------------0-0-0-|
D-|---0----0------0----4----|---0-----0-------4-----2-|
A-|-------------2-----------|---------------0------0--|
D-|-0-----------------------|-5-----------------------|

38.
D-|-------------------------|-------------------------|
B-|-------3-5p3-------3-5p3-|-------3---5p3-------3-2-|
G-|-----2-----------2-------|-----0-------------0-0-0-|
D-|---0----0------0----4----|---0-----0-------4-----2-|
A-|-------------2-----------|---------------0------0--|
D-|-0-----------------------|-2-----------------------|

39.
D-|-----------------2--------5---------5-|--------7--------7---------7--------7|
B-|---------3-----3--------3---------3---|------5--------5---------7---------7-|
G-|-------2-----2--------4---------4-----|----6--------6---------7---------7---|
D-|-----0-----0------------------0-------|----------0--------------------0-----|
A-|--------------------------------------|-------------------------------------|
D-|-0------------------0-----------------|--0------------------0---------------|


40.
D-|-------9-------9--------11-------11-|
B-|-----8-------8-------10-------10----|
G-|---7-------7-------9-------9--------|
D-|---------0---------------0----------|
A-|------------------------------------|
D-|-0---------------0------------------|

41.
D-|--12-12--12--12--12-12-12-12---12-12-12-12-12-11-12-|
B-|---7--8--10--12---7--8-10-12----7--8-10-12-10--8----|
G-|---7--7---9--12---7--7--9-12----7--7--9-12-12--9----|
D-|----------------------------------------------------|
A-|----------------------------------------------------|
D-|-0--------------0-------------0---------------------|

42.
D-|------12-------12--------------------------------|
B-|-----10-------10--12ha-detune 2nd string to A----|
G-|----11-------11---12ha----------3rd string to-F#-|
D-|---12-------12----12ha---------------------------|
A-|----------0-------12ha---------------------------|
D-|-0----------------12ha---------------------------|


ends
            

comments powered by Disqus
↑ Back to top | Adrian Legg Tabs for Anu. Lyrics for acoustic guitar and electric guitar. Tablatures and chords are parodies/interpretations of the original songs. You may use it for private study, scholarship, research or language learning purposes only