» » »

A Dozen Furies, Awake And Lifeless Tabs (ver.1)

Artists:  A B C D E F G H I J K L M N O P Q R S T U V W X Y Z # 

Awake And Lifeless Tabs (ver.1)

A Dozen Furies Tabs
 Rating:
3.6/5 (5 votes)
Awake And Lifeless lessons Tabs too difficult? Try these video lessons and learn fast
                (Intro)
Awake and Lifeless Intro
Tuning C# G# C# F# A# D#

This Took me a whole 5 minutes to Tab out since its preety simple but yes i cant find 
me to tab the song

|-----------------------------------------------------------------|
|------10---10--12---10---12---14--14--15--14--15--17-------------|
|-----------------------------------------------------------------|
|-----------------------------------------------------------------|
|-----------------------------------------------------------------|
|-----------------------------------------------------------------|


sweeep here from about

12-16 fret area up and down to what sounds appropriate :D
end wit a pinch harmonic on the A# string! 19th fret!
then the first intro harmony thing with another sweep then...

|-----------------------------------------------------------------|
|-----------------------------------------------------------------|
|--------17 17/18---15--------------------------------------------|
|-----------------------------------------------------------------|
|-----------------------------------------------------------------|
|-----------------------------------------------------------------|

and then heavy riff

|-----------------------------------------------------------------------|
|-----------------------------------------------------------------------|
|-----------------------------------------------------------------------|
|-----------------------------------------------------------------------|
|-------------5h8p5-----------5h8p5------------5h8p5-----5-4-8-7--------|
|-----000-00--------000-00-------------000-00------------5-4-8-7--------|
            
Submit corrections

comments powered by Disqus
↑ Back to top | A Dozen Furies Tabs for Awake And Lifeless. Lyrics for acoustic guitar and electric guitar. Tablatures and chords are parodies/interpretations of the original songs. You may use it for private study, scholarship, research or language learning purposes only