» » »

Les Hauta Quartiers Chords (ver.1)

Artists:  A B C D E F G H I J K L M N O P Q R S T U V W X Y Z # 

Les Hauta Quartiers Chords (ver.1)

Dominique A
Rating:
0/5 (0 votes)

Hard to play? Try these video lessons and learn fast.
                Une jolie valse qui boite.......
J'ai mis la petite melodie d'intro a la guitare a la fin.
Les remarques sont les bienvenues.
Je persiste a penser qu'une mailing list serait quelque chose
de bien.


A         C#m        F#m       E
Pour une fois, tranquille, decide
A      C#m     F#m        E
Pas a pas nous regagnons les
A                      C#m    F#m              E
Les hauts quartiers de peine, les avait-on quittes
A       C#m      C#m            E
Le plus dur s'acheve, tu m'en  vois
     D   C#m
desole

Tout en bas nous nous sommes laisses
Aller a croire ces hauts quartiers
Loin de nous alors meme, qu'on ne cessait d'y penser
Un faux pas et pas d'autre choix qu'y
retourner

Pour une fois, tranquille, decide
Pas a pas nous regagnons les
Les hauts quartiers de peine, les avait-on quittes
Sitot la tu parles deja de
redescendre

Redescendre c'est complique
J'ai pris gout a ces hauts quartiers
Ces hauts lieux sans relief, ces contours arretes
Quand en bas tant peinent a s'aimer
puis remontent


Petite melodie:
---------------

Sur les cordes de mi (aigue) et si

e:----9----9----9----10----10----9-|
B:-10---10---10---12----12----10---|

e:---7---7---7---7---7---|
B:-9---9---9---9---9---9-|

e:---5---5-7-5---5---5---|
B:-7---7-------7---7---7-|

e:---7---7---9---9---7---|
B:-9---9---9---9---9---9-|

e:----9----9----9----10----10----9-|
B:-10---10---10---12----12----10---|

e:---7---7---7----10----9---7-|
B:-9---9---9---12----10---9---|

e:---5---5---5---5---5---|
B:-7---7---7---7---7---7-|

e:---4---4---4----------|
B:-5---5---5---5-7-9-10-|
            
Hard to play? Try these video lessons and learn fast. | Correct




comments powered by Disqus
↑ Back to top | Tablatures and chords are parodies/interpretations of the original songs. You may use it for private study, scholarship, research or language learning purposes only