» » »

Adolescents, Wrecking Crew Bass tabs (ver.1)

Artists:  A B C D E F G H I J K L M N O P Q R S T U V W X Y Z # 

Wrecking Crew Bass tabs (ver.1)

Adolescents Tabs
 Rating:
4/5 (4 votes)
Wrecking Crew lessons Tabs too difficult? Try these video lessons and learn fast
1
                WRECKING CREW - the Adolescents 



Intro: 1x *=let ring ^=softly 
G|-------------------------------------------------------| 
D|---7*-------------7*------6^--------------7*------6^---| 
A|-------6-5-4-0*--------5^------4-3-2-0*--------5^------| 
E|-------------------------------------------------------| 

Pre-Verse: 
G|-------------------------------------------------| 
D|-------------------------------------------------| 
A|---0-0-0-0-0-0-0-0-4-3-2--0-0-0-0-0-0-0-0-0-0----| 
E|-------------------------------------------------| 

G|-------------------------------------------------------------------------------------------------------| 
D|-------------------------------------------------------------------------------------------------------| 
A|--4-4-3-2-0-0-0-0-0-0-0-0--4-4-3-2-0-0-0-0-0-0-0-0--4-4-3-2-0-0-0-0-0-0-0-0--4-4-3-2-0-0-0-0-0-0-0-0---| 
E|-------------------------------------------------------------------------------------------------------| 

Verse: 
G|--------------------------------------------------------------------------------------------------------------| 
D|--------------------------------------------------------------------------------------------------------------| 
A|---0--0-0-3-3--0-0-0-3-3-3-3--0--0-0-3-3--0-0-0-3-3-3-3--0--0-0-3-3--0-0-0-3-3-3-3--0--0-0-3-3--0-0-0-3-3-3-3-| 
E|--------------------------------------------------------------------------------------------------------------| 

Pre-Verse: 1x 
Verse: 1x 

Pre-Outro 2: 
G|-----------------------------------------------------------------| 
D|-----------------------------------------------------------------| 
A|----0-0-0-0-0-0-0-0-4-3-2--0-0-0-0-0-0-0-0-0-0-------------------| 
E|-----------------------------------------------------------------| 

G|-----------------------------------------------------------------------------------------| 
D|-----------------------------------------------------------------------------------------| 
A|--4-4-3-2-0-0-0-0-0-0-0-0--4-4-3-2-0-0-0-0-0-0-0-0--4-4-3-2-0-0-0-0-0-0-0-0--4-4-4-3-2-0-| 
E|-----------------------------------------------------------------------------------------| 

Outro: 
G|----------------------------------------------------------------------------| 
D|---7*-------------7*------6^-------------7*-----6^--------------------------| 
A|-------6-5-4-0*-------5^------4-3-2-0*-------5^----0-0-0-0-0-0-0-0-4-3-2-0--| 
E|----------------------------------------------------------------------------| 

Oops almost didn't put a friendly message here...well I have nothing friendly 
today, so just play the song. 
            
Submit corrections

comments powered by Disqus
↑ Back to top | Adolescents Bass for Wrecking Crew. Lyrics for acoustic guitar and electric guitar. 1 Tablatures and chords are parodies/interpretations of the original songs. You may use it for private study, scholarship, research or language learning purposes only