» » »

Word Attack Bass tabs (ver.1)

Artists:  A B C D E F G H I J K L M N O P Q R S T U V W X Y Z # 

Word Attack Bass tabs (ver.1)

Adolescents
Rating:
4/5 (2 votes)

Tabs too difficult? Try these video lessons and learn fast.
                Verse
G--------------------------------------------------------|
D--------------------------------------------------------|
A-44444--44444--44444--44444--44444--44444--44444--44444-|
E--------------------------------------------------------|

Pre Chorus
G----------|----------|----------|----------|
D----------|----------|----------|----------|
A-55555555-|-55555555-|-55555555-|-55555555-|
E----------|----------|----------|----------|

Chorus
G------------------|------------------|------------------|-----------------|
D------------------|------------------|------------------|-----------------|
A------------------|------------------|------------------|-----------------|
E-0-1-2-1--0-1-2-3-|-0-1-2-1--0-1-2-3-|-0-1-2-1--0-1-2-3-|-0-1-2-1--0-1-2-3|

Verse
G--------------------------------------------------------|
D--------------------------------------------------------|
A-44444--44444--44444--44444--44444--44444--44444--44444-|
E--------------------------------------------------------|

Pre Chorus
G----------|----------|----------|----------|
D----------|----------|----------|----------|
A-55555555-|-55555555-|-55555555-|-55555555-|
E----------|----------|----------|----------|

Chorus
G------------------|------------------|------------------|-----------------|
D------------------|------------------|------------------|-----------------|
A------------------|------------------|------------------|-----------------|
E-0-1-2-1--0-1-2-3-|-0-1-2-1--0-1-2-3-|-0-1-2-1--0-1-2-3-|-0-1-2-1--0-1-2-3|

Verse
G--------------------------------------------------------|
D--------------------------------------------------------|
A-44444--44444--44444--44444--44444--44444--44444--44444-|
E--------------------------------------------------------|

Pre Chorus
G----------|----------|----------|----------|
D----------|----------|----------|----------|
A-55555555-|-55555555-|-55555555-|-55555555-|
E----------|----------|----------|----------|

Chorus
G------------------|------------------|------------------|-----------------|
D------------------|------------------|------------------|-----------------|
A------------------|------------------|------------------|-----------------|
E-0-1-2-1--0-1-2-3-|-0-1-2-1--0-1-2-3-|-0-1-2-1--0-1-2-3-|-0-1-2-1--0-1-2-3|

G------------------|------------------|------------------|-----------------|
D------------------|------------------|------------------|-----------------|
A------------------|------------------|------------------|-----------------|
E-0-1-2-1--0-1-2-3-|-0-1-2-1--0-1-2-3-|-0-1-2-1--0-1-2-3-|-0-1-2-1--0-1-2-3|

(Just play till end)
            
Tabs too difficult? Try these video lessons and learn fast.




comments powered by Disqus
↑ Back to top | Tablatures and chords are parodies/interpretations of the original songs. You may use it for private study, scholarship, research or language learning purposes only