» » »

Adolescents, Who Is Who Bass tabs (ver.1)

Artists:  A B C D E F G H I J K L M N O P Q R S T U V W X Y Z # 

Who Is Who Bass tabs (ver.1)

Adolescents Tabs
Rating:
0/5 (0 votes)
Who Is Who lessons Tabs too difficult? Try these video lessons and learn fast
                Intro
G-------------------------------------------|
D-------------------------------------------|
A--6666666-5-666666-5-6666666-5-6666666-6//-| X2
E-------------------------------------------|

verse
G------------------------------------------------------|
D------------------------------------------------------|
A--4444444-4-4444444-4-6666666-6-6666666-6-4--444444---| X1
E------------------------------------------------------|

chorus
G--------------------------------------------------|
D--------------------------------------------------|
A----------9-9-666666--9-9---------9-9-6666--9999--| 
E--777777------------------777777------------------|
                                                X1
G---------------------------------------------|
D---------------------------------------------|
A--6666--9-9-9-9-6666--9-9-9-9-6666--9-9-9-9--|
E---------------------------------------------|

Intro
G-------------------------------------------|
D-------------------------------------------|
A--6666666-5-666666-5-6666666-5-6666666-6//-| X1
E-------------------------------------------|

verse
G------------------------------------------------------|
D------------------------------------------------------|
A--4444444-4-4444444-4-6666666-6-6666666-6-4--444444---| X1
E------------------------------------------------------|

chorus
G--------------------------------------------------|
D--------------------------------------------------|
A----------9-9-666666--9-9---------9-9-6666--9999--| 
E--777777------------------777777------------------|
                                                X1
G---------------------------------------------|
D---------------------------------------------|
A--6666--9-9-9-9-6666--9-9-9-9-6666--9-9-9-9--|
E---------------------------------------------|

solo
G------------------------------------------------------|
D------------------------------------------------------|
A--4444444-4-4444444-4-6666666-6-6666666-6-4--444444---|
E------------------------------------------------------|

chorus
G--------------------------------------------------|
D--------------------------------------------------|
A----------9-9-666666--9-9---------9-9-6666--9999--| 
E--777777------------------777777------------------|
                                                X1
G---------------------------------------------|
D---------------------------------------------|
A--6666--9-9-9-9-6666--9-9-9-9-6666--9-9-9-9--|
E---------------------------------------------|

end
G------------------------------------------------------------------|
D------------------------------------------------------------------|
A-------------------------------6666--9999-6666--9999-6--9-6--9-66-|
E-6-66-666-7-77-777--9-99-999--------------------------------------|

Might not be right, leave corrections in the comments, if you will.
            

comments powered by Disqus
↑ Back to top | Adolescents Bass for Who Is Who. Lyrics for acoustic guitar and electric guitar. Tablatures and chords are parodies/interpretations of the original songs. You may use it for private study, scholarship, research or language learning purposes only