» » »

Adolescents, Welcome To Reality Bass tabs (ver.1)

Artists:  A B C D E F G H I J K L M N O P Q R S T U V W X Y Z # 

Welcome To Reality Bass tabs (ver.1)

Adolescents Tabs
Rating:
0/5 (0 votes)
Welcome To Reality lessons Tabs too difficult? Try these video lessons and learn fast
                 

Wait for Drums, then guitar intro 

Intro/Verse 1: 4x 
G|--------------------------------------------------| 
D|-----9-9----------9-9--------9-9---------9--------| 
A|----------10-10-------10-10------10-10------------| 
E|--------------------------------------------------| 

Chorus: 2x 
G|----------------------------------------------------------------------------------| 
D|---7-7------7-7-------7-7----------7-7-9-9--------9-9--------9-9---------9-9------| 
A|--------8-8------8-8------8-8-7-7----------10-10------10-10------10-10------10-10-| 
E|----------------------------------------------------------------------------------| 

Verse 1: 4x 
Chorus: 2x 

Verse2: 10x 
G|-------------------------------------------------------------| 
D|-----9-9--------9-9--------9-9--------9-9--------------------| 
A|---------10-10------10-10------10-10------10-10--------------| 
E|-------------------------------------------------------------| 

Outro: the last 6 notes, iffy at best 
G|-------------------------------------------------------------| 
D|--------9-9-9-9-9-9-9-9-9-9-9-9------------------------------| 
A|-----------------------------------------0-0-5-6-5-5-0-------| 
E|-------------------------------------------------------------| 

And you are done =:-) Welcome to Reality, take off your shoes before you enter. 
            

comments powered by Disqus
↑ Back to top | Adolescents Bass for Welcome To Reality. Lyrics for acoustic guitar and electric guitar. Tablatures and chords are parodies/interpretations of the original songs. You may use it for private study, scholarship, research or language learning purposes only