» » »

Adolescents, Surf Yogi Bass tabs (ver.1)

Artists:  A B C D E F G H I J K L M N O P Q R S T U V W X Y Z # 

Surf Yogi Bass tabs (ver.1)

Adolescents Tabs
 Rating:
4/5 (4 votes)
Surf Yogi lessons Tabs too difficult? Try these video lessons and learn fast
                
this song is instrumental so I didnt organize it into verse/chorus/outro, 
and whatnot I just put it into riff# 

RIFF#1 
(the first time you play this riff, slide from 7 to 3 in stead of hitting 0) 
G|----------------| 
D|-----5-5-5------| 
A|-0-3------------| 
E|----------------| 

RIFF#2 
G|-------8-8-8----| 
D|---5\6----------| 
A|----------------| 
E|----------------| 

RIFF#3 
G|----------------------------------| 
D|----------------------------------| 
A|5-5-55-55/-7-9-7-5-4-44-3-2-0-3-4-| 
E|----------------------------------| 

RIFF#4 
G|--------------------------------------------| 
D|--------------------------------------------| 
A|444-4/55-555--4/55-555--4/55-555x-5-4-3-0---| 
E|--------------------------------------------|
            
Submit corrections

comments powered by Disqus
↑ Back to top | Adolescents Bass for Surf Yogi. Lyrics for acoustic guitar and electric guitar. Tablatures and chords are parodies/interpretations of the original songs. You may use it for private study, scholarship, research or language learning purposes only