» » »

Adolescents, No Way Tabs (ver.1)

Artists:  A B C D E F G H I J K L M N O P Q R S T U V W X Y Z # 

No Way Tabs (ver.1)

Adolescents Tabs
Rating:
0/5 (0 votes)
No Way lessons Tabs too difficult? Try these video lessons and learn fast
                No Way - The Adolescence



               INTRO  2X
e|-------------------------------------------------------------------------------|
B|-------------------------------------------------------------------------------|
G|-------------------------------------------------------------------------------|
D|--6-6-6-6-6-6-6-6-/-13-13-13-13-13-13-13-13--9-9-9-9-9-9-9-9-------------------|
A|--4-4-4-4-4-4-4-4-/-11-11-11-11-11-11-11-11--7-7-7-7-7-7-7-7--9-9-9-9-9-9-9-9--|
E|--------------------------------------------------------------7-7-7-7-7-7-7-7--|


              CHORUS 2X then play w/ the muting
e|--------------------------------------------------------|
B|--------------------------------------------------------|
G|--------------------------------------------------------|
D|--6-6-6-6-6-------------9-9-9-9-9-----------------------|
A|--4-4-4-4-4--6-6-6-6-6--7-7-7-7-7--9-9-9-9-9------------|
E|-------------4-4-4-4-4-------------7-7-7-7-7------------|


              BRIDGE
e|--------------------------------------------------------|
B|--------------------------------------------------------|
G|--------------------------------------------------------|
D|--------------------------------------------------------|
A|--777--5---777--5---777--5---777--5--7-8-9--------------|
E|--555--3---555--3---555--3---555--3--5-6-7--------------|
            
Submit corrections

comments powered by Disqus
↑ Back to top | Adolescents Tabs for No Way. Lyrics for acoustic guitar and electric guitar. Tablatures and chords are parodies/interpretations of the original songs. You may use it for private study, scholarship, research or language learning purposes only