» » »

Adolescents, I Love You Bass tabs (ver.1)

Artists:  A B C D E F G H I J K L M N O P Q R S T U V W X Y Z # 

I Love You Bass tabs (ver.1)

Adolescents Tabs
Rating:
0/5 (0 votes)
Hard to play? Try these video lessons and learn fast.
                
Bass Intro: 
G---------------------------------- 
D---------------------------------- 4X 
A----7777777----------------------- 
E-----------8888888-7777777-5555555 

Verse: 
G-------------------------- 
D-------------------------- 
A---7777--44454------------ 
E---------------7777--5555- 

Bridge 
G----------------------------- 
D----------------------------- 
A--------999910999------------ 
E------------------7777--5555- 

Repeat verse & Bridge 
Repeat verse during solo 

The " i love you" part 
G---------------------------------- 
D---------------------------------- 
E---7--7-7---4--4-4---------------- 
A--------------------7--7-7---5--5-5 

Repeat verse until bass outro 

Bass outro: 
G-------------------12--------12---14-----14-14 
D----12-14--12h14-14--12h14-14----------------- 
E---------------------------------------------- 
A---------------------------------------------- 

G-------------------12-------12------12-----12-14---14--14 
D----12-14----12h14----12h14----12h14--12h14-------------- 
E--------------------------------------------------------- 
A--------------------------------------------------------- 

Repeat first part of the bass outro and it's done. 

Allright.See ya! 
            

comments powered by Disqus
↑ Back to top | Adolescents Bass for I Love You. Lyrics for acoustic guitar and electric guitar. Tablatures and chords are parodies/interpretations of the original songs. You may use it for private study, scholarship, research or language learning purposes only