>
 >
Amoeba 1

Amoeba 1 Guitar Tabs

Adolescents - Amoeba 1 chords, tabs, tablatures, lyrics

Guitar lessons | Add/correct | Request | Top 50 tabs Artists:  A B C D E F G H I J K L M N O P Q R S T U V W X Y Z 0-9

Amoeba 1 Guitar Tabs – Adolescents

CD, Sheet music, Poster

Do you like Amoeba 1? Share with your friends now
Bass TabsTabsTabs v2
-------------------------------------------------------------------------------
                          AMOEBA - Adolescents
-------------------------------------------------------------------------------


Intro/Chorus (Guitar 1):

    G      E        D            C                  B
E|----------------------------------------------------------------|
B|----------------------------------------------------------------|
G|--12-12--9-9-9-9--7-7-7-7-7-7-----------------------------------|
D|--12-12--9-9-9-9--7-7-7-7-7-7--10-10-10-10-10-10--9-9-9-9-9-9---|
A|--10-10--7-7-7-7--5-5-5-5-5-5--10-10-10-10-10-10--9-9-9-9-9-9---|
E|-------------------------------8--8--8--8--8--8---7-7-7-7-7-7---|
 |
 |  Intro/Chorus (Guitar 2)
 |
 |   F# G   E       F# G  E       F# G  E       F# G   E
E|-------------------------------------------------------------------|
B|-------------------------------------------------------------------|
G|---11-12--9-9-9-9-11-12-9-9-9-9-11-12-9-9-9-9-11-12--9-9-9-9-------|
D|---11-12--9-9-9-9-11-12-9-9-9-9-11-12-9-9-9-9-11-12--9-9-9-9-------|
A|---9--10--7-7-7-7-9--10-7-7-7-7-9--10-7-7-7-7-9--10--7-7-7-7-------|
E|-------------------------------------------------------------------|

Verse:
    B       A       Ab          B       A       Ab
E|---------------------------|-----------------------------------|
B|---------------------------|-----------------------------------|
G|---------------------------|-----------------------------------|
D|--9-------7-------6--------|--9-9-9-9-7-7-7-7-6-6-6-6----------|
A|--9-9-9-9-7-7-7-7-6-6-6-6--|--9-9-9-9-7-7-7-7-6-6-6-6----------|
E|--7-7-7-7-5-5-5-5-4-4-4-4--|--7-7-7-7-5-5-5-5-4-4-4-4----------|
    PM----| PM----| PM-------------------------------------------|

    Post-Verse:

    A#         E          Ab         A#         E          Ab
E|------------------------------------------------------------------------|
B|------------------------------------------------------------------------|
G|-------------9--9-9--9------------------------9--9-9--9-----------------|
D|--8--8-8--8--9--9-9--9--6--6-6--6--8--8-8--8--9--9-9--9-----------------|
A|--8--8-8--8--7--7-7--7--6--6-6--6--8--8-8--8--7--7-7--7--6-6-6-6-6-6----|
E|--6--6-6--6-------------4--4-4--4--6--6-6--6-------------4-4-4-4-4-4----|
                                                          PM--------------|

    Solo 1 (guitar 1 just plays the chorus figure)
E|-----------------------------------------------------------------------|
B|-----------------------------------------------------------------------|
G|--9-9-9-9-11-11-11-11-12-12-12-12-14-14-14-14-16-16-14-16-16-11-12-----|
D|--x-x-x-x-x--x--x--x---x--x--x--x--x--x--x--x--x--x--x--x--x-x---x-----|
A|--7-7-7-7-9--9--9--9--10-10-10-10-12-12-12-12-14-14-12-14-14-9--10-----|
E|-----------------------------------------------------------------------|

E|-----------------------14-14-12-12-14-14-15-15-14-------------------------|
B|--------------------------------------------------15-15-14-14-15-15-14-14-|
G|--12-11-11-12-12-11-9-----------------------------------------------------|
D|---x-x--x---x--x-x--x-----------------------------------------------------|
A|--10-9--9--10-10-9--7-----------------------------------------------------|
E|--------------------------------------------------------------------------|

E|--12-12-14-12-12-15-15-14-------------------------------------------|
B|--------------------------15-12-------------------------------------|
G|--------------------------------14-12-------------------------------|
D|-------------------------------------14-12--------------------------|
A|------------------------------------------14-12---------------------|
E|-----------------------------------------------12-\0----------------|

    Solo 2 (Guitar 1 plays the chorus figure)
E|-----------------------------------12-15-14-12----------------------|
B|-----------------------------12-15-------------12b-12b-14-12\\\-----|
G|--14b-14b-14b-14-12----12-14----------------------------------------|
D|--------------------14----------------------------------------------|
A|--------------------------------------------------------------------|
E|--------------------------------------------------------------------|

E|-------------------------------------------------------------------|
B|-------------------------------------------------------------------|
G|-------------------------------------------------------------------|
D|-------------------------------------------------------------------|
A|-------------------------------------------------------------------|
E|--2~-3~-5~-7~-9~-11~-13~-15~-17~-19~-------------------------------|

    Outro (Guitar 1 plays chorus figure)
    E        E        E        E
E|-------------------------------------------------------------------|
B|-------------------------------------------------------------------|
G|--9-9-9-x--9-9-9-x--9-9-9-x--9-9-9-x-------------------------------|
D|--9-9-9-x--9-9-9-x--9-9-9-x--9-9-9-x-------------------------------|
A|--7-7-7-x--7-7-7-x--7-7-7-x -7-7-7-x-------------------------------|
E|-------------------------------------------------------------------|

-------------------------------------------------------------------------------





Comments


Popular Adolescents tabs & chords
L.A. Girl 1 Bass Tabs
No Friends Bass Tabs
Self Destruct 1 Bass Tabs
Word Attack Bass Tabs
Lockdown America Intro Tabs
No Way Tabs
Richard Hung Himself Tabs
Rip It Up Tabs
Who Is Who Tabs
Wrecking Crew Tabs


Song lyrics



↑ Back to top | Tablatures and chords are parodies/interpretations of the original songs. You may use it for private study, scholarship, research or language learning purposes only
© 2014 AZChords.com Contact us | Privacy policy | DMCA | Add/correct tabs | Request tabs | Top 50 tabs