» » »

Adolescents, Amoeba Bass tabs (ver.1)

Artists:  A B C D E F G H I J K L M N O P Q R S T U V W X Y Z # 

Amoeba Bass tabs (ver.1)

Adolescents Tabs
Rating:
5/5 (5 votes)
Hard to play? Try these video lessons and learn fast.
                Song : Amoeba
Band: The Adolescents


intro/verse

G-------------------------------------------------------------|
D----5-5------------------------------------------------------|
A--------7-77777777-77777777--5-55555555-55555555-------------|
E-------------------------------------------------------------|

G-------------------------------------------------------------|
D-------------------------------------------------------------|
A----3-33333333-33333333--2-22222222-22222222-----------------|
E-------------------------------------------------------------|

repeat above as nessesary


chorus

G-------------------------------------------------------------|
D-------------------------------------------------------------|
A-------------------------------------------------------------|
E---7-77777777--5-55555555--4-44444444-44444444---------------|

repeat above as nessesary


G-------------------------------------------------------------|
D-------------------------------------------------------------|
A--------------7-77-77--------------------7-77-77-------------|
E----6-66-66-----------4-44-44---6-66-66-----------44444444---|



verse/guitar solo #1

G-------------------------------------------------------------|
D----5-5------------------------------------------------------|
A--------7-77777777-77777777--5-55555555-55555555-------------|
E-------------------------------------------------------------|

G-------------------------------------------------------------|
D-------------------------------------------------------------|
A----3-33333333-33333333--2-22222222-22222222-----------------|
E-------------------------------------------------------------|

repeat above as nessesary



chorus

G-------------------------------------------------------------|
D-------------------------------------------------------------|
A-------------------------------------------------------------|
E---7-77777777--5-55555555--4-44444444-44444444---------------|

repeat above as nessesary


G-------------------------------------------------------------|
D-------------------------------------------------------------|
A--------------7-77-77-------------------7-77-77--------------|
E----6-66-66-----------4-44-44---6-66-66-----------44444444---|




verse/solo #2

G-------------------------------------------------------------|
D----5-5------------------------------------------------------|
A--------7-77777777-77777777--5-55555555-55555555-------------|
E-------------------------------------------------------------|

G-------------------------------------------------------------|
D-------------------------------------------------------------|
A----3-33333333-33333333--2-22222222-22222222-----------------|
E-------------------------------------------------------------|

repeat above as nessesary




listen to the song and you should get it down the rythym
enjoy
            

comments powered by Disqus
↑ Back to top | Adolescents Bass for Amoeba. Lyrics for acoustic guitar and electric guitar. Tablatures and chords are parodies/interpretations of the original songs. You may use it for private study, scholarship, research or language learning purposes only