» » »

Einstein Brain Bass tabs (ver.1)

Artists:  A B C D E F G H I J K L M N O P Q R S T U V W X Y Z # 

Einstein Brain Bass tabs (ver.1)

Admiral Freebee
Rating:
0/5 (0 votes)

Hard to play? Try these video lessons and learn fast.
                For the bass

Verse (when instrumental)

G----------------------------------------------------------------|
D------3-2-------------------------------------------------------|
A--/3------3---2-3-h5p3------------------------------------------|
E------------3---------------------------------------------------|

Verse (while singing)

G----------------------------------------------------------------|
D---3-3-------------------or sometimes---3-3---------------------|
A-------3-3-----3-3--------------------------3-3-----3-3---------|
E-----------3-3----------------------------------0-0-------------|

Doesn’t really matter, you can hardly hear the difference when playing with the song.

Chorus

G-----------------------------------------------------------------|
D-----------------------------------------------------------------|
A-------------7-5-3-0 0-------------------------------------------|
E--1-1-1-1-0------------3-3-1-1-1-0-0-0-0-1-1-1-1-3-3-3-3---3-3---|

Solo same as under verse
After the solo it’s same as chorus (only not as fast).
            
Hard to play? Try these video lessons and learn fast. | Correct




comments powered by Disqus
↑ Back to top | Tablatures and chords are parodies/interpretations of the original songs. You may use it for private study, scholarship, research or language learning purposes only