» » »

Adicts, Woke Up This Morning Tabs (ver.1)

Artists:  A B C D E F G H I J K L M N O P Q R S T U V W X Y Z # 

Woke Up This Morning Tabs (ver.1)

Adicts Tabs
Rating:
0/5 (0 votes)
Woke Up This Morning lessons Tabs too difficult? Try these video lessons and learn fast
                THE ADICTS
CANCION: WOKE UP THIS MORNING
TABLATURA DE : CESAR CONDE

Intro
E---------------------------------------------0---------3-3------|
B-----1--------1---------1--------1----------1-1-------0---0-----|
G----2-2------2-2-------0-0------0-0--------2---2-----0-----0----|
D---3---3----3---3-----2---2----2---2------2-----2---0-------0---|
A--3-----3--3-----3---3-----3--3-----3----0----------------------|
E-1--------1---------0--------0----------------------------------|

E-------------------------|
B-----1--------1----------|
G----2-2------2-2---------|
D---3---3----3---3----3---|
A--3-----3--3-----3---3---|
E-1--------1----------1---|
SE REPITE EL INTRO ATRAVES DE LA LETRA DE LA CANCION.

WHAT A LOVELY ATMOSPHERE
IT´S NEARLY CLOSING TIME
THE RIGHT TIME IS UPON US
FOR NURSERY RHYMES

I LOOK INTO YOUR EYES
IT SOMES AS NO SURPRISES
I CRAWLED INTO YOUR SPACES
AND NO ONE´S HOME

(aqui se agrega lo siguiente)

E-------------------------|
B-----1--------1----------|
G----2-2------2-2---------|
D---3---3----3---3----3---|
A--3-----3--3-----3---3---|
E-1--------1----------1---|

(despues se toca de nuevo el intro atraves de la letra)

WHAT A LOVELY ATMOSPHERE
THE NIGHT IS SETTING SAIL
THE RIGHT TIME IS UPON US
FOR BEDTIME TALES

(aqui comienza con distorcion todo)

E----------------------------------------|      WAKE UP IN THE MORNING
B----------------------------------------|      WHIT A BANG IN MY HEAD
G-3---3---3---3--------------------------|      WOKE UP IN THE MORNING
D-3---3---3---3-5-8-8-8--5-8-8-8---------|  x7  I WISH I WAS DEAD
A-1---1---1---1-5-8-8-8--5-8-8-8---------|      WAKE UP IN THE MORNING
E---------------3-6-6-6--3-6-6-6---------|      WHIT A BANG IN MY HEAD
                                        WOKE UP IN THE MORNING
(aqui cuando dice por ultima ves "I WISH I WAS DEAD", se toca:
E-------------------------------------|
B-------------------------------------|
G-------------------------------------|
D-5-5-5-5-3-3-3-3--5-5-5-5-3-3-3-3----|
A-5-5-5-5-3-3-3-3--5-5-5-5-3-3-3-3----|
E-3-3-3-3-1-1-1-1--3-3-3-3-1-1-1-1----|

I WISH I COULD WAKE UP
I WISH I COULD WAKE UP
I WISH I COULD WAKE UP
YESTERDAY

I WISH I COULD WAKE UP
I WISH I COULD WAKE UP
I WISH I COULD WAKE UP
YESTERDAY

E------------------------------------------------------------------|
B------------------------------------------------------------------|
G-----------------8-8-8-8-8-8-8-8----------------------------------| X 2
D-5-5-5-5-3-3-3-3-8-8-8-8-8-8-8-8-5-5-5-5-3-3-3-3-5-5-5-5-3-3-3-3--|
A-5-5-5-5-3-3-3-3-6-6-6-6-6-6-6-6-5-5-5-5-3-3-3-3-5-5-5-5-3-3-3-3--|
E-3-3-3-3-1-1-1-1-----------------3-3-3-3-1-1-1-1-3-3-3-3-1-1-1-1--|

despues se toca solo una ves:
E----------------------------------|
B----------------------------------|
G-----------------8-8-8-8-8-8-8-8--|
D-5-5-5-5-3-3-3-3-8-8-8-8-8-8-8-8--|
A-5-5-5-5-3-3-3-3-6-6-6-6-6-6-6-6--|
E-3-3-3-3-1-1-1-1------------------|

DESPUES VA:

WAKE UP IN THE MORNING
WITH A HOLE IN MY HEAD

E-------------------------------------------------------------------|
B-------------------------------------------------------------------|
G---------------------------------------------------8-8-8-8-8-8-8-8-|
D-5-5-5-5-3-3-3-3-5-5-5-5-3-3-3-3---5-5-5-5-3-3-3-3-8-8-8-8-8-8-8-8-|
A-5-5-5-5-3-3-3-3-5-5-5-5-3-3-3-3---5-5-5-5-3-3-3-3-6-6-6-6-6-6-6-6-|
E-3-3-3-3-1-1-1-1-3-3-3-3-1-1-1-1---3-3-3-3-1-1-1-1-----------------|

PARA TEMINAR SE TOCA LO SIGUIENTE EN LA ULTIMA PARTE

WAKE UP IN THE MORNING
WITH A HOLE IN MY HEAD
GET UP IN THE MORNING
GET UP IN THE MORNING

E-------------------------------|
B-------------------------------|
G-3--3--3--3--------------------|  X4
D-3--3--3--3-5-8-8-8---5-8-8-8--|
A-1--1--1--1-5-8-8-8---5-8-8-8--|
E------------3-6-6-6---3-8-8-8--|

FINAL:

E----------------|
B----------------|
G----------------|
D-5--5x5x5x5x----|
A-5--5x5x5x5x----|
E-3--3x3x3x3x----|

BIEN ESO ES TODO, NESECITAN OIR LA ROLA Y ENCONTRAR BIEN LOS CAMBIOS CUANDO EMPIESA LA 
ES MUY SENCILLA DE TOCAR.

ESPERO PODER MEJORARLA YA QUE NO ES PERFECTA, PERO VA POR TODA LA BANDA QUE SABE DE 
MUSICA PERO VA EN ESPECIAL PARA EL AMOR DE MI VIDA QUE ME INSPIRO PARA SACARLA "G.F.Y.B". 
SIGAN ROCKEANDO Y VIVA "THE ADICTS" EL MEJOR GRUPO.

SI TIENEN MAS IDEAS DE ESTA CANCION O DE OTRAS CANCIONES DE THE ADICTS PORFA CONTACTA 
ENVIA UN MENSAJE O ALGO PARECIDO.MI CORREO ES:
            

comments powered by Disqus
↑ Back to top | Adicts Tabs for Woke Up This Morning. Lyrics for acoustic guitar and electric guitar. Tablatures and chords are parodies/interpretations of the original songs. You may use it for private study, scholarship, research or language learning purposes only