» » »

Adicts, Who Spilt My Beer Tabs (ver.4)

Artists:  A B C D E F G H I J K L M N O P Q R S T U V W X Y Z # 

Who Spilt My Beer Tabs (ver.4)

Adicts Tabs
Rating:
4/5 (1 vote)
Who Spilt My Beer lessons Tabs too difficult? Try these video lessons and learn fast
                (Intro)
i didn't tab this completely on my own, but i learned it somewhere (i dont remember 
and figured i'd submit it since the other tab for this song is completely wrong.

|---------------------------------------------------------------------|
|---------------------------------------------------------------------|
|---------------------7-7-7-7-4-4-4-4-6-6-6-7-7-7-7-------9-9-9-9-9-9-|
|-7-7-7-7-7-7-7-7-7-7-7-7-7-7-4-4-4-4-6-6-6-7-7-7-7-7-7-7-9-9-9-9-9-9-|
|-7-7-7-7-7-7-7-7-7-7-5-5-5-5-2-2-2-2-4-4-4-5-5-5-5-7-7-7-7-7-7-7-7-7-|
|-5-5-5-5-5-5-5-5-5-5-------------------------------5-5-5-------------|x2
^ (i play it a little bit different than the recording i've noticed, but the notes are 
the same. i just play them a couple more times)

|-----------------------------2-------5-4-|
|-2-2-2-------3-2-------2-5-2---5-2-5-----|
|-------2-4-2-----4-2-4-------------------|
|-----------------------------------------|
|-----------------------------------------|
|-----------------------------------------|

the rest of the song is mainly power chords (the same ones as above) and other 
on the second part. i dont know that whole part though, so all i can say is, listen to the song 
expiriment.
            
Submit corrections

comments powered by Disqus
↑ Back to top | Adicts Tabs for Who Spilt My Beer. Lyrics for acoustic guitar and electric guitar. Tablatures and chords are parodies/interpretations of the original songs. You may use it for private study, scholarship, research or language learning purposes only